Cifra Club

Oceans Apart

Roger Waters

Cifrado: Principal (guitarra y guitarra eléctrica)
Selo Cifra Club: esta cifra foi revisada para atender aos critérios oficiais da nossa Equipe de Qualidade.
tono: D
                ^                                v     
E|--------------3-------------------------------------|
B|--------------3-------------------------------------|
G|--------------0--------------------------------0----|
D|--------------0--------------------------------0----|
A|--------------2-----------------2-----2h-3-----2----|
E|--3-----------3-------------------------------------|

                                              ^  v     
E|----------------------------------------------------|
B|----------------------------------------------------|
G|--------------------------------------------0--0----|
D|--------------------------------------------0--0----|
A|--------------------------------2-----2h-3--2--2----|
E|--3| L----------------------3-------------------------|

                                                 v     
E|----------------------------------------------------|
B|----------------------------------------------------|
G|-----------------------------------------------0----|
D|-----------------------------------------------0----|
A|--------------------------------2-----2h-3-----2----|
E|--3| L----------------------3-------------------------|

                ^                    v  ^  v  ^        
E|--------------3-------------------------------------|
B|--------------3-------------------------------------|
G|--------------0--------------------0--0--0--0-------|
D|--------------0--------------------0--0--0--0-------|
A|--------------2-----------2--------2--2--0--0-------|
E|--3-----------3-------------------------------------|

    ^                                   ^        ^                             
E|--2-----------------------------------------------------2s----1s----0-------|
B|--3-----------------------------------3| g-------3g-------3s----2s----0-------|
G|--2-----------------------------------2| g-------2g-------2s----1s----0-------|
D|--0-----------------------------------0| g-------0g---------------------------|
A|----------------------------------------------------------------------------|
E|----------------------------------------------------------------------------|

                            ^           ^     ^        
E|----------------------------------------------------|
B|----------------------------------------------------|
G|--------------------------0-----------0-----0--0----|
D|--------------------------2-----------2-----2-------|
A|--3-----------------------3-----------3-----3-------|
E|--------------3-------------------------------------|

                ^                    v        ^  v     
E|----------------------------------------------------|
B|----------------------------------------------------|
G|--------------0| L----------0--------0--------0--0----|
D|--------------0| L----------0--------0--------0--0----|
A|--------------2| L----------2--------2--2h-3--2--2----|
E|--3-----------3| L----------3-------------------------|

                ^                    v  ^  v  ^        
E|--------------3-------------------------------------|
B|--------------3-------------------------------------|
G|--------------0--------------------0--0--0--0-------|
D|--------------0--------------------0--0--0--0-------|
A|--------------------------2--------2--2--0--0-------|
E|--3-------------------------------------------------|

    ^           ^           ^     ^  v  ^  ^  ^  v     
E|--------------0-------------------------------------|
B|--------------1--------------------1--1-------------|
G|--0-----------0--------------------0--0--0--0--0----|
D|--2-----------2-----------2| g----2g-2--2--2--0--0----|
A|--3-----------3-----------3| g----3g-3--3--3--0--0----|
E|----------------------------------------------------|

                ^                 v           ^  v     
E|----------------------------------------------------|
B|----------------------------------------------------|
G|--------------0-----------------0-----------0--0----|
D|--------------0-----------------0-----------0--0----|
A|--------------2-----------------2-----2h-3--2--2----|
E|--3-----------3-----------3-------------------------|

                ^                 ^  v  ^  v  ^        
E|--------------3-------------------------------------|
B|--------------3-------------------------------------|
G|--------------0-----------------0--0--0--0--0-------|
D|--------------0-----------------0--0--0--0--0-------|
A|--------------------------2-----2--2--2--0--0-------|
E|--3-------------------------------------------------|

    ^           ^           ^     ^  v  ^  ^  ^  v     
E|--------------0-------------------------------------|
B|--------------1--------------------1--1-------------|
G|--0-----------0--------------------0--0--0--0--0----|
D|--2-----------2-----------2| g----2g-2--2--2--0--0----|
A|--3-----------3-----------3| g----3g-3--3--3--0--0----|
E|----------------------------------------------------|

                ^                 v           ^  v     
E|----------------------------------------------------|
B|----------------------------------------------------|
G|--------------0-----------------0-----------0--0----|
D|--------------0-----------------0-----------0--0----|
A|--------------2-----------------2-----2h-3--2--2----|
E|--3-----------3-----------3-------------------------|

                ^                 ^  v  ^  v  ^        
E|--------------3-------------------------------------|
B|--------------3-------------------------------------|
G|--------------0-----------------0--0--0--0--0-------|
D|--------------0-----------------0--0--0--0--0-------|
A|--------------------------2-----2--2--2--0--0-------|
E|--3-------------------------------------------------|

    ^           ^           ^     ^  v  ^  ^  ^  v     
E|--------------0-------------------------------------|
B|--------------1--------------------1--1-------------|
G|--0-----------0--------------------0--0--0--0--0----|
D|--2-----------2-----------2| g----2g-2--2--2--0--0----|
A|--3-----------3-----------3| g----3g-3--3--3--0--0----|
E|----------------------------------------------------|

    ^     ^  v        ^  v     
E|-----------3-----------3----|
B|--------3--3--------3--3----|
G|--------0--0--------0--0----|
D|--------0--0--------0--0----|
A|--2>----2-----------2-------|
E|--3>----------2>------------|

    ^           ^              ^        ^  v  ^  v     
E|--------------0| L----------0-----------0--0--0--0----|
B|--------------0| L----------0--0--------0--0--0--0----|
G|--------------0| L----------0--0--------0--0--0--0----|
D|--------------2| L----------2--2--2-----2--2--0--0----|
A|--2-------------------------------------------------|
E|--0-------------------------------------------------|

    ^           ^                 ^  v  ^  v  ^  v     
E|--------------2| L----------2-----------2--2--2-------|
B|--3-----------3| L----------3-----3--3--3--5--3--0----|
G|--2-----------2| L----------2-----2--2--2--2--2--0----|
D|--0-----------0| L----------0-----0--0--0--0--0--0----|
A|----------------------------------------------------|
E|----------------------------------------------------|

    ^           ^        v           ^  ^  v  ^  v
E|--0-----------------------------------0--0----------| |
B|--1-----------1-----------------------1--1--0--0----| |
G|--0-----------0--------0-----------0--0--0--0--0----| |
D|--2-----------2--------2-----------2--2--2--0--0----| |
A|--3-----------3--------3--3-----3--3--3--3--0--0----| |
E|----------------------------------------------------| |



*****************************************
L - tied note
x - dead note
h - hammer on/pull off
s - slide
g - ghost note
> - accentuated note
v - brush up
^ - brush down
*****************************************
Otros videos de esta canción
    43 exhibiciones
      • ½ Tono
      • A
      • Bb
      • B
      • C
      • Db
      • D
      • Eb
      • E
      • F
      • F#
      • G
      • Ab
    • Agregar a la lista

    Afinação da cifra

    Afinador online

      Ops (: Contenido disponible solo en portugués.
      OK