Cifra Club

Eyes

Rogue Wave

Cifrado: Principal (guitarra y guitarra eléctrica)
Selo Cifra Club: esta cifra foi revisada para atender aos critérios oficiais da nossa Equipe de Qualidade.
tono: C (con acordes en la forma de F#) Capotraste en 6ª casa
Capo: 6ª casa
Intro: F#

(Relativo ao capo)
e|-------------------------------|--------------------------------|
B|-------3---3-----3-------------|------3---3------3--------------|
G|---2/4---4---------4\2-0h2--0--|--2/4---4----------4--4\2-0-----|
D|-------------------------------|--------------------------------|
A|-------------------------------|--------------------------------|
E|-------------------------------|--------------------------------|

F#                    C# 
Missed the last train home, 
F#                    Bbm            F# 
Birds pass by to tell me that I'm not alone. 
         C#            F# 
Over pushing myself to finish this part, 
C#               F#                  C# 
Handle a lot, One I thing I?m missing, 
                 C#     F# 
It's in your eyes, In your eyes (x2) 
           Bbm             F#      C# 
In your eyes, in your eyes, in your eyes

(Solo relativo ao capo)
e|-------------------------------------------------|
B|------------------------3-3----------------------|
G|---4p2-0---0--------2/4--------------------------|
D|---------2---------------------------------------|
A|-------------------------------------------------|
E|-------------------------------------------------|

F#                C# 
Have you seen this film? 
F#               Bbm                 F# 
It reminds me of walking through the avenues. 
C#                F# 
Washing my hands, Attachment scared, 
C#                 F#                        C# 
Land on the Ground, One thing I?m missing, 
                 C#       F# 
It's in your eyes, In your eyes (x2) 
           Bbm             F#      C# 
In your eyes, in your eyes, in your eyes

(Solo principal relativo ao capo)
e|-------------------------------------------------|
B|------3-3-3-0-3h5-3------------------------------|
G|----4--------------4-4---------------------------|  X4
D|-------------------------------------------------|
A|-------------------------------------------------|
E|-------------------------------------------------|

           F#            C#             F#             C#            F#
In your eyes, in your eyes, in your eyes, in your eyes, in your eyes,
           C#            Bbm             C#            F#
in your eyes, in your eyes, in your eyes, in your eyes.

(Solo final relativo ao capo)
e|-------------------------------------------------|
B|-------0-0---------0-3-----3p0-------------------|
G|---2/4---------2/4-------------2p0-0-----2h4-----|
D|-------------------------------------------------|
A|-------------------------------------------------|
E|-------------------------------------------------|
Otros videos de esta canción
    4.709 exhibiciones
      • ½ Tono
      • A
      • Bb
      • B
      • C
      • Db
      • D
      • Eb
      • E
      • F
      • F#
      • G
      • Ab
    • Agregar a la lista

    Afinación de cifrado

    Afinador online

      OK