Cifra Club

Lake Michigan

Rogue Wave

Cifrado: Principal (guitarra y guitarra eléctrica)
Selo Cifra Club: esta cifra foi revisada para atender aos critérios oficiais da nossa Equipe de Qualidade.
tono: G
E|12----------12----------10----------10----------| 12----------12----------10----------10----------|
B|----12----------12----------10----------10------|----12----------12----------10----------10------|
G|--------12----------12----------12----------12--|--------12----------12----------12----------12--|
D|------------------------------------------------|------------------------------------------------|
A|------------------------------------------------|------------------------------------------------|
E|------------------------------------------------|------------------------------------------------|

E|12----------10----------10----------12----------| 12----------10----------10-------------10----10-|
B|----12----------10----------10----------12------|----12----------10----------10-------10----10---|
G|--------12----------12----------12----------12--|--------12----------12----------12-12----12-----|
D|------------------------------------------------|------------------------------------------------|
A|------------------------------------------------|------------------------------------------------|
E|------------------------------------------------|------------------------------------------------|

G    Cmaj7    G    Cmaj7
(4 bars, 2 with the riff above)

[Verse 1]
G              Cmaj7                        G
  Heaven is a switchboard that you want to fight
               Cmaj7                      G
She would even miss you if you taught her sight
          Cmaj7                 G
Power politician leaning to the right
             Cmaj7
Baby's got a trust fund that she'll want to

[Chorus]
Em          A
Go off like that
C             G
Get off of my stack
Em            A
Leave a little window
C             G      Cmaj7    G    Cmaj7
Get off of my stack
G      Cmaj7   G     Cmaj7

[Verse 2]
G                Cmaj7            G
Now we wear same-colored yellow uniforms
               Cmaj7                      G
Sky is burning but at least we know we're warm
          Cmaj7                  G
   Go and run yourself a million miles
                Cmaj7
Hoping that the colors run out and you

[Chorus 2]
Em          A
Go off like that
C             G
Get off of my stack
Em            A
Leave a little window
C             G      Cmaj7    G    Cmaj7
Let off of my stack

[Instrumental]
G      Cmaj7   G     Cmaj7

[Bridge]
G               Cmaj7         G            Cmaj7
  You can never see yourself, ringing all around it  (x6)

[Bridge 2]
A               C  G  A
No one, no one, Michigan
A                         C  G  A
You labored, you labored, Michigan

[Chorus 3]
Em          A
Not another payoff
C             G
Get off of my stack
Em             A
Leave a little window
C             G
Get off of my stack
Em           A
You know you can do
C             G
Get off of my stack
G      Cmaj7      G      Cmaj7
stack

[Outro]
G      Cmaj7      G      Cmaj7  (8 bars)
n'yeah yeah,      n'yeah  yeah
Otros videos de esta canción
    14 exhibiciones
      • ½ Tono
      • A
      • Bb
      • B
      • C
      • Db
      • D
      • Eb
      • E
      • F
      • F#
      • G
      • Ab
    • Agregar a la lista

    Afinação da cifra

    Afinador online

      Ops (: Contenido disponible solo en portugués.
      OK