Cifra Club

No Me Soltarás

Rojo

Cifrado: Principal (guitarra y guitarra eléctrica)
Selo Cifra Club: esta cifra foi revisada para atender aos critérios oficiais da nossa Equipe de Qualidade.
tono: B
E|-9-11-11-7---7-9-11-11--9-11-11-7---7-9-11-11| B|---------------------------------------------|
B|---------------------------------------------|
G|---------------------------------------------|
D|---------------------------------------------|
A|---------------------------------------------|

           B
Aunque yo esté en valle de la muerte y dolor
     E
Tu amor me quita todo temor
                B
Y si llego a estar en el centro de la tempestad
    E
No dudaré por que estas aquí

         G#m F#   B                  G#m F#   B
Y no temeré  del mal, pues mi Dios conmi..Go esta
             G#m F#   B              F#               E
Y si Dios conmi..Go está, de quien temeré?, de quien temeré?


E|-7-6-4--2-2s4--2----7-6-4--2-2s4-4s6-6s7-----|
B|-----------------4---------------------------|
G|---------------------------------------------|
D|---------------------------------------------|
A|---------------------------------------------|
E|---------------------------------------------|

E|-7-6-4--2-2s4--2----7-7-7-7s9-9--6-6-6-6s7-7-|
B|-----------------4---------------------------|
G|---------------------------------------------|
D|---------------------------------------------|
A|---------------------------------------------|
E|---------------------------------------------|

B
No,no,no me soltaras, en la calma la tormenta
G#m
No,no,no me soltaras, en lo alto en lo bajo
F#                   E                    B F# E
No,no,no me soltaras, Dios nunca me dejarás

            B
Puedo ver la luz que se acerca al que busca de ti
    E
Gloriosa luz cual otra no hay
          B
Y terminarán los problemas mientras llega el fin
     E
Viviremos conociéndote a ti

         G#m F#   B                G#m F#   B
Y no temeré  del mal, pues mi Dios conmigo esta
           G#m F#   B              F#               E
Y si Dios conmigo está, de quien temeré?, de quien temeré?

E|-7-6-4--2-2s4--2----7-6-4--2-2s4-4s6-6s7-----|
B|-----------------4---------------------------|
G|---------------------------------------------|
D|---------------------------------------------|
A|---------------------------------------------|
E|---------------------------------------------|

E|-7-6-4--2-2s4--2----7-7-7-7s9-9--6-6-6-6s7-7-|
B|-----------------4---------------------------|
G|---------------------------------------------|
D|---------------------------------------------|
A|---------------------------------------------|
E|---------------------------------------------|

B
No, no, no me soltaras, en la calma la tormenta
G#m
No,no,no me soltaras, en lo alto en lo bajo

F#                   E                    B F# E
No,no,no me soltaras, Dios nunca me dejarás

                B
Y puedo ver la luz que se acerca al que busca de ti
          G#m
Y terminarán los problemas mientras llega el fin
F#              E              B F#
Voy a alabarte, voy a alabarte   solo a ti

                B
Y puedo ver la luz que se acerca al que busca de ti
          G#m
Y terminarán los problemas mientras llega el fin
F#              E              B F# E
Voy a alabarte, voy a alabarte

B
No,no,no me soltaras, en la calma la tormenta
G#m
No,no,no me soltaras, en lo alto en lo bajo
F#                   E                    B F# E
No,no,no me soltaras, Dios nunca me dejarás

B                    G#m
L A. L A. L A......  L A, L A, L A
F#                   E                    B
No,no,no me soltaras Dios nunca me dejarás
E                     B
Dios nunca me dejarás
Otros videos de esta canción
    33.960 exhibiciones
      • ½ Tono
      • A
      • Bb
      • B
      • C
      • Db
      • D
      • Eb
      • E
      • F
      • F#
      • G
      • Ab
    • Agregar a la lista

    Afinação da cifra

    Afinador online

      Ops (: Contenido disponible solo en portugués.
      OK