Cifra Club

Aprenda

bachata

Romeo Santos

Tablatura: Principal (guitarra)
tono: G (con acordes en la forma de D) Capotraste na 5ª casa



E|----15h17---------13h15--------12h13--------10h12--------------------
B|----------18-18---------17-17--------15-15--------13-13-13p12--------
G|---------------------------------------------------------------------
D|---------------------------------------------------------------------
A|---------------------------------------------------------------------
E|---------------------------------------------------------------------

E|------15-------12h13-------10h12--------8h10------------------------
B|--/13----17-17-------15-15-------13-13-------12-12-12/13------------
G|--------------------------------------------------------------------
D|--------------------------------------------------------------------
A|--------------------------------------------------------------------
E|--------------------------------------------------------------------

E|---17p5-5-15p5-5-13p5-5-12p5-5-13p5-5-12p5-5-10p5-5-10p5-5-8p5-5-8p5------
B|--------------------------------------------------------------------------
G|--------------------------------------------------------------------------
D|--------------------------------------------------------------------------
A|--------------------------------------------------------------------------
E|--------------------------------------------------------------------------

E|--7p5---7p5----8p5---5p8----7p5---7p5---7p5---7p5---8p5---8p5---8/10--------
B|------8-----8------8-----8------8-----8-----8-----8-----8-----8-------------
G|----------------------------------------------------------------------------
D|----------------------------------------------------------------------------
A|----------------------------------------------------------------------------
E|----------------------------------------------------------------------------

E|--15p5-5-13p5-5-12p5-5-13p5-5-12p5-5-10p5-5-8p5-5-7p5-5-
B|----------------------------------------------------------------
G|--------------------------------------------------------------
D|----------------------------------------------------------------
A|----------------------------------------------------------------
E|---------------------------------------------------------------

E|----8p5-5-8p5-5-10p5-5-10p5-5-10/12----------
B|-------------------------------------10-------------
G|------------------------------------------------
D|-------------------------------------------------
A|------------------------------------------------------
E|---------------------------------------------------


Aposte los sentimientos y jugue a fuego lento con amor

E|---------------------------------------------------
B|---------------------------------------------------
G|------5-------5--5--------5----5---5-------------------------
D|----7-------7-----------7----7-----------------------------
A|--7-------7----7------7----7-----7---------------------------
E|---------------------------------------------------

E|---------------------------------------------------
B|------8-----8---8------8-----8---8-----------------------
G|----7-----7----------7-----7---------------------------
D|--9-----9-----9----9-----9-----9-------------------------
A|---------------------------------------------------
E|---------------------------------------------------

Me enfrente a la competencia, olvidando su indolencia

E|---------------------------------------------------
B|----------6----------------------6-------------------
G|------7-----7---7------------5-----5---5-----------------
D|----7---7-----7------------7---7-----7-------------------
A|--5----------------------8---------------------------
E|---------------------------------------------------

   Ahi       fue      mi error

E|---------------------------------------------------
B|------------8-----------------------8---------------
G|---------5-----------------------5-----------------
D|-------7-----------------------9-------------------
A|-----5-------------------------------------------------
E|---------------------------------------------------


Por complejo de Quijote fue llevando este derroche de mal a peor

E|-----------7-8-7h8p7p5-----------7-8-7h8p7p5---------
B|-----------------------------------------------------
G|--------5---------------------5----------------------
D|------7---------------------7------------------------
A|----7---------------------7--------------------------
E|---------------------------------------------------

E|---------------------------------------------------
B|------8---10-----8-------8---10-----8--------------
G|----7--------7---------7--------7------------------
D|--9-----9------9-----9-----9------9----------------
A|---------------------------------------------------
E|---------------------------------------------------

Y en la rutela rusa, mi rival que estan astusta asi se aprovecho

E|-----------------------12-13-12h13p12p10--------------------------
B|--------6-5h6p5---5-6--------------------------------------------
G|------7---------7------------------------7/9---9/109--7--------------
D|----7------------------------------------9/10-10/1210-9-------------
A|--5---------------------------------------------------------------
E|------------------------------------------------------------------

Y como ven no soy un alguien con buena intuicion

E|---------------------------------------------------
B|-------6-----6---6-----6-----6---6-----------------------
G|-----5-----5---------5-----5---------------------------
D|---7-----7-----7---7-----7-----7-------------------------
A|---------------------------------------------------
E|---------------------------------------------------

E|------10-------8-------7-------------------------------
B|----8----8---8---8---8---8---10---8-------------------------
G|--7--------7-------7-------7----7-----------------------
D|---------------------------------------------------
A|---------------------------------------------------
E|---------------------------------------------------

Me lance a quemarropa y ella me vencio


E|---------------------------------------------------
B|--------8-------8----8------8------8----8----------------
G|------9-------9-----------9------9----------------------
D|---10------10-----10---10-----10-----10------------------------
A|---------------------------------------------------
E|---------------------------------------------------

E|-------8h7---7p5-----------------------------------------
B|-----8-----8---------f5-f5-f5-f5-f5-f5---------------------------
G|---7-----------------f5-f5-f5-f5-f5-f5--------------------------
D|---------------------f7-f7-f7-f7-f7-f7-------------------------
A|---------------------------------------------------
E|---------------------------------------------------

Estribillo

Y perdi,

E|---------------------------------------------------
B|---------------------------------------------------
G|----------------------/12-----------------------------
D|--------------9-10-12-----12-------------------------------
A|--------10-12------------------------------------------
E|---------------------------------------------------

Jugue con una diabla que es experta en esos juegos del amor

E|-------------------------------------------------------------
B|-------------------------------------------------------------
G|-------------------------------------------------------------
D|----------------------------12-12------10-10------9-9--------
A|-------------------------12---------12---------12------------
E|-------------------------------------------------------------


Y perdi


E|---------------------------------------------------
B|---------------------------------------------------
G|----------------------12-----------------------------
D|--------------9-10-12----/12-------------------------------
A|--------10-12------------------------------------------
E|---------------------------------------------------

 sus fichas barajas no le fallan mas no tiene compasion

E|------------------------------------------------------------
B|------------------------------------------------------------
G|-------------------------------------------------------------
D|---------------------------14-14------12-12------10-10---------
A|------------------------15---------15--------15-------------
E|-----------------------------------------------------------

Y perdi, no fui el primero y unico que pierde


E|---------------------------------------------------
B|-------------6------------6-------5-------8----------------
G|---------5-----5---5----5-------7-------9-------------------
D|-------7---7-----7----7-------9------10---------------------
A|-----8----------------------------------------------
E|---------------------------------------------------

Y si ella retornara y se conmueve, la reto a otro duelo


E|-----------------------------------------------------------
B|-----------6----------------6---------------6---------------
G|-------5-----5---5------7-----7---7-----5-----5---5---------
D|-----7---7-----7------7---7-----7-----7---7-----7------------
A|---8----------------5---------------8-----------------------
E|------------------------------------------------------------



Y en la revancha vuelvo y pierdo el corazón


E|---------------7--7-----------------------
B|-------------8----8-------------------------
G|-----------9------7------------------------
D|--------10--------9------------------------
A|-----10-------------------------------------
E|-------------------------------------------

Solo


E|---17-------15-------13-------12-------------------
B|------18-18----17-17----15-15----13-13--13p12------
G|---------------------------------------------------
D|---------------------------------------------------
A|---------------------------------------------------
E|---------------------------------------------------

E|--15p5-5-13p5-5-12p5-5-13p5-5-12p5-5-10p5-5-8p5-5-7p5-5--
B|-----------------------------------------------------------
G|----------------------------------------------------------
D|----------------------------------------------------------
A|-----------------------------------------------------------
E|----------------------------------------------------------

E|----8p5-5-8p5-5-10p5-5-10p5-5-10-12----------
B|---------------------------------13-----------------
G|------------------------------------------------
D|-------------------------------------------------
A|------------------------------------------------------
E|---------------------------------------------------



                     (x2)

E|--------------------15/17-15-15----------------------
B|---15-17-18-17-15---------------18-18----------------
G|---------------------------------------------------
D|---------------------------------------------------
A|---------------------------------------------------
E|---------------------------------------------------

E|------------------13/15-13-13-12-12-----------------
B|--15-17-18-17-15-------------------------------------
G|----------------------------------------------------
D|-----------------------------------------------------
A|----------------------------------------------------
E|-----------------------------------------------------

E|--------12-10-12-10-10h12-108------
B|-------------------------------------
G|------------------------------------
D|--------------------------------------
A|--------------------------------------
E|-------------------------------------

                     (x2)

E|--------------------15/17-15-15----------------------
B|---15-17-18-17-15---------------18-18----------------
G|---------------------------------------------------
D|---------------------------------------------------
A|---------------------------------------------------
E|---------------------------------------------------

E|------------------13/15-13-13-12-12---------
B|--15-17-18-17-15------------------------------------
G|-------------------------------------------
D|--------------------------------------------
A|--------------------------------------------
E|-------------------------------------------

E|------12-10-12-10-10h12-108----------
B|--------------------------------------
G|--------------------------------------
D|--------------------------------------
A|--------------------------------------
E|--------------------------------------

E|----13-12-13-12-12h13-12p10-12p10------------------
B|---------------------------------------------------
G|---------------------------------------------------
D|---------------------------------------------------
A|---------------------------------------------------
E|---------------------------------------------------

E|----12-10-12-10-10h12-10/8-8h10p8-7----------------
B|---------------------------------------------------
G|---------------------------------------------------
D|---------------------------------------------------
A|---------------------------------------------------
E|---------------------------------------------------


Y como ven no soy un alguien con buena intuicion


E|---------------------------------------------------
B|---------------------------------------------------
G|---------------------------------------------------
D|-----7-10-9-9h10-7-----7-10-9-9h10-----------------
A|---8-----------------8-----------------------------
E|---------------------------------------------------

E|---------------------------------------------------
B|------8-----8---8------8-----8---8-----------------
G|----7-----7----------7-----7-----------------------
D|--9-----9-----9----9-----9-----9-------------------
A|---------------------------------------------------
E|---------------------------------------------------

Me lance a quemarropa y ella me venció

E|---------------------------------------------------
B|---------8------8----8-------------8---------------
G|-------9------9---------------9------9----9--------
D|----10-----10-----10-------10---10-----10----------
A|------------------------10-------------------------
E|---------------------------------------------------

E|------------------------------------------------
B|------8-----6-----------f5-f5-f5-f5-f5-f5-------
G|----7-----5-------5-----f5-f5-f5-f5-f5-f5-------
D|--9-----7--------7------f7-f7-f7-f7-f7-f7-------
A|---------------7--------------------------------
E|------------------------------------------------

Estribillo

Solo 2

E|---------12-10-12-10--------10-8-10-8------------------
B|------13-----------------12-------------10-------------
G|---14-----------------12-------------------------------
D|-------------------------------------------------------
A|-------------------------------------------------------
E|-------------------------------------------------------

E|-------10-13-12-13-12-10-8--12-8h10p8-------
B|----10-----------------------------------------------
G|---------------------------------------------------
D|---------------------------------------------------
A|---------------------------------------------------
E|---------------------------------------------------

Y perdi,

E|---------------------------------------------------
B|---------------------------------------------------
G|----------------------/12-----------------------------
D|--------------9-10-12-----12-------------------------------
A|--------10-12------------------------------------------
E|---------------------------------------------------

Jugue con una diabla que es experta en esos juegos del amor

E|-------------------------------------------------------------
B|-------------------------------------------------------------
G|-------------------------------------------------------------
D|----------------------------12-12------10-10------9-9--------
A|-------------------------12---------12---------12------------
E|-------------------------------------------------------------


Y perdi


E|---------------------------------------------------
B|---------------------------------------------------
G|----------------------12-----------------------------
D|--------------9-10-12----/12-------------------------------
A|--------10-12------------------------------------------
E|---------------------------------------------------

 sus fichas barajas no le fallan mas no tiene compasion

E|------------------------------------------------------------
B|------------------------------------------------------------
G|-------------------------------------------------------------
D|---------------------------14-14------12-12------10-10---------
A|------------------------15---------15--------15-------------
E|-----------------------------------------------------------

Y perdi, no fui el primero y unico que pierde


E|---------------------------------------------------
B|-------------6------------6-------5-------8----------------
G|---------5-----5---5----5-------7-------9-------------------
D|-------7---7-----7----7-------9------10---------------------
A|-----8----------------------------------------------
E|---------------------------------------------------

Y si ella retornara y se conmueve, la reto a otro duelo


E|---------------------------------------------------------------
B|-----------6----------------6---------------5--------5---------
G|-------5-----5---5------7-----7---7-----5-----5---5--5---------
D|-----7---7-----7------7---7-----7-----7---7-----7----7---------
A|---8----------------5---------------7----------------7---------
E|-----------------------------------------------------5---------

Y el la Revancha (you lose)
Composição de Romeo Santos
Colaboración y revision:
  • Antonio Luca
83 reproducciones
    • ½ Tono
    • A
    • Bb
    • B
    • C
    • Db
    • D
    • Eb
    • E
    • F
    • F#
    • G
    • Ab
  • Adicionar à lista

    0 comentarios

    Ver todos os comentários

    ¿Conseguiste tocar?

    0 Tocaram 0 Ainda não

    Grave um vídeo tocando bachata e nos envie!

    00:00 / 00:00
    outros vídeos desta música
    repetir qualidade Automático
    Outros vídeos desta música
    00:00 / 00:00
    Automático
    OK