Cifra Club

Que se mueran

Romeo Santos

Cifrado: Principal (guitarra y guitarra eléctrica)
tono: Bm

E|--14--12---------------------------0-17-17-17--0-15-15-15--0--12--|
B|-----------15--14--12---------------------------------------------|
G|------------------------------------------------------------------|
D|------------------------------------------------------------------|
A|------------------------------------------------------------------|
E|------------------------------------------------------------------|

E|--0--0-2-3---0--0-2--3------------0----0------------------5-5--3--5-5--3--|
B|----------------------------0--0-2----2-----2---2-2--3--5-----------------|
G|--------------------------------------------------------------------------|
D|--------------------------------------------------------------------------|
A|--------------------------------------------------------------------------|
E|--------------------------------------------------------------------------|

E|-----------------------2-2-3-3| H5H3H2-0-5H3H2--|
B|----0-0-2-3-2-2-2-----------------------------|
G|----------------------------------------------|
D|----------------------------------------------|
A|----------------------------------------------|
E|----------------------------------------------|

G  O
E|---15h14-12--15h14-12-15h14-12----------------------|
B|----------------------------------------------------|
G|----------------------------------------------------|
D|----------------------------------------------------|
A|----------------------------------------------------|
E|----------------------------------------------------|

E|---19-19-19-17-17-17-15-15-15-14-14-14-15-15-15-----|
B|----------------------------------------------------|
G|----------------------------------------------------|
D|----------------------------------------------------|
A|----------------------------------------------------|
E|----------------------------------------------------|

E|-----------------------------------------|
B|---15-15-15-17-17-17-19-19-19-17-17-17h2-|
G|-----------------------------------------|
D|-----------------------------------------|
A|-----------------------------------------|
E|-----------------------------------------|

E|---------0--0--2-3-3-3-2-0-0h2x6-0-0--|
B|--------------------------------------|
G|--------------------------------------|
D|--------------------------------------|
A|--------------------------------------|
E|--------------------------------------|

E|--------------------------------------|
B|--3-3-3-3h5-3-2-0--3h5-3-2-0h2x6------|
G|--------------------------------------|
D|--------------------------------------|
A|--------------------------------------|
E|--------------------------------------|

E|----10---10-10-10--12---12-12---10---10-10-10----|
B|-------------------------------------------------|
G|-------------------------------------------------|
D|-------------------------------------------------|
A|-------------------------------------------------|
E|-------------------------------------------------|

E|---9---9-9-9--10---10-10-10--12--12-12--10-|
B|-------------------------------------------|
G|-------------------------------------------|
D|-------------------------------------------|
A|-------------------------------------------|
E|-------------------------------------------|

E|----10-10-10---9---9-9-9--10---10-10-10--|
B|-----------------------------------------|
G|-----------------------------------------|
D|-----------------------------------------|
A|-----------------------------------------|
E|-----------------------------------------|

E|---12---12-12-12----14---14-14--12-12-12-10-10-10-9-9-9--7h9--9h10--|
B|--------------------------------------------------------------------|
G|--------------------------------------------------------------------|
D|--------------------------------------------------------------------|
A|--------------------------------------------------------------------|
E|--------------------------------------------------------------------|
00:00 / 00:00
Otros videos de esta canción
Repetir
Otros videos de esta canción
Composición de Anthony "romeo" Santos
53 vistas
    • ½ Tono
    • Am
    • Bbm
    • Bm
    • Cm
    • C#m
    • Dm
    • Ebm
    • Em
    • Fm
    • F#m
    • Gm
    • G#m
  • Agregar a la lista

    0 comentarios

    Ver todos los comentarios

    ¿Lograste tocar?

    0 Tocaron 0 Aún no

    ¡Graba un video tocando Que se mueran y envíanoslo!

    00:00 / 00:00
    OK