Cifra Club

Iris

Ronan Keating

Cifrado: Principal (guitarra y guitarra eléctrica)
tono: G
iris
tuning satandard yan ha....
hindi nyo na kailangan ibahin ang tono ako kaya ko
baka ung iba mahirapan eh...............
 INTRO ..............HEHEHEHE
e-2-2-3-2-3-2-0--------|
b-3-2-3-3-0-0-3--------|
g-4-4-0-0-0-0-0--------|
d-4-4-0-0-0-0-0--------|
a-2-2-2-2-2-2-2--------|
e-x-x-3-3-3-3-3--------|
VERSE..................
e---------------------------|
b---3---3---3---3---3---3---|
g--2-2-2-2-2-2-2-2-2-2-2-2--|
d-0---2---------------------|
a-------------2---0---------|
e---------3-----------3-----|
chorus
e---------------------------|
b---3---3---3---3---3---3---|
g--2-2-2-2-2-2-2-2-2-2-2-2--|
d---------------------------|
a-2---0-------2---0---------|
e---------3-----------3-----|
repeat intro
repeat verse
repeat chorus
bridge
e-2-2-2-2-2-2-2-2-3-2-3-2-0------|
b-3-3-3-3-2-2-2-2-3-3-0-0-3------|
g-4-4-4-4-4-4-4-4-0-0-0-0-0------| 4x
d-4-4-4-4-4-4-4-4-0-0-0-0-0------|
a-2-2-2-2-2-2-2-2-2-2-0-0-0------|
e-----------------3-3-0-0-0------|

e---------------------------------|
b---------------------------------|
g-2/7-9-6-2/7-9-11-2/7-11-6-2/4---|
d---------------------------------|
a---------------------------------|
e---------------------------------|

e-----------------------------------------|
b--/12--------10-14-14-14/15-14-----14-14-|
g-2/--2/7-9-11-----------------14-14------|
d-----------------------------------------|
a-----------------------------------------|
e-----------------------------------------|

tpos repeat chorus dalawang beses 2x
tpos coda
e-----------------------------|
b---3---3----3---3---3--------|
g--2-2-2-2--2-2-2-2-2-2-------|un fade po ito
d---------0-------------------|
a-2---4----2---0--------------|
e------------------3----------|

hoi pki rate nalng
para saiyo 2 janette........hehehehe
maniwala k nmn .................
00:00 / 00:00
Otros videos de esta canción
Repetir
Otros videos de esta canción
Composición de John Rzeznik
50 exhibiciones
    • ½ Tono
    • A
    • Bb
    • B
    • C
    • Db
    • D
    • Eb
    • E
    • F
    • F#
    • G
    • Ab
  • Agregar a la lista
    00:00 / 00:00
    OK