Cifra Club

In Excelsis Deo

Roper

Cifrado: Principal (guitarra y guitarra eléctrica)
Selo Cifra Club: esta cifra foi revisada para atender aos critérios oficiais da nossa Equipe de Qualidade.
tono: Cm
intro

E|-------------------|
B|-------------------|
G|--8--5-------------|
D|--8--5--8--5-------|
A|--6--3--8--5-------|
E|--------6--3-------|

verse

E|-----------------|
B|-----------------|
G|-555-777---------|
d-555-777-777-555-|  The rythym goes mute mute unmute
a-333-555-777-555-|
E|---------555-333-|

pre chorus

E|----------------------------------------------------------|
B|----------------------------------------------------------|
G|-5-------9-------------4th| time through--5--------7-------|
D|-x--X8---x--X4---5-----| --x--X8----x--X8---|
A|-3-------7-------5--X4-| --3--------5-------|
E|-----------------3-----| -------------------|

chorus

E|--------------------------------------------------|
B|--------------------------------------------------|
G|-8------8------5----------------------------------|
D|-8-X12--8--X4--5--X4--6-----------| end on--8-------|
A|-6------5------3------6--X8-------| --8--X5---|
E|----------------------4-----------| --6-------|

then...
Intro--->Verse--->Pre-Chorus--->Chorus

2nd time through chorus end on

D|--5-------|
A|--5--X5---|
E|--3-------|

bridge

E|------------------------------|
B|------------------------------|
G|--5------------------------8--|
D|--5----3----7--3--5-66-88--8--| Play this last chord for a while
A|--3----3----7--3--5-66-88--6--|
E|-------1----5--1--3-44-66-----|

chorus

outro

E|------------------------------------------------------|
B|------------------------------------------------------|
G|--8------8------5-------8---------------8---------8---|
D|--8--X8--8--X8--5--X16--8--X16--6-------8--8-6--8-8---|
A|--6------5------3-------6-------6--X16--6--8-6--8-6---|
E|--------------------------------4----------6-4--6-----|
Otros videos de esta canción
    20 exhibiciones
      • ½ Tono
      • Am
      • Bbm
      • Bm
      • Cm
      • C#m
      • Dm
      • Ebm
      • Em
      • Fm
      • F#m
      • Gm
      • G#m
    • Agregar a la lista

    Afinación de cifrado

    Afinador online

      OK