Cifra Club

Red Eye To Miami

Roper

Cifrado: Versão 2 (guitarra y guitarra eléctrica)
Selo Cifra Club: esta cifra foi revisada para atender aos critérios oficiais da nossa Equipe de Qualidade.
tono: C
Verse: use reveb or delay to make it sound good
E|----------------|
B|----------------|
G|-7---5--7---5---|
D|-7---5--7---5---| 2x
A|-5---3--5---3---|
E|----------------|

verse pt 2: Distortion
E|----------------------------------|
B|----------------------------------|
G|-----7-------7-------5------------|
D|-----7-------7-------5-------5----| 4x
A|-5-5-5---5-5-5---3-3-3-------5----|
E|-------------------------3-3-3----|
  * *     * *     * *     * *

Pre Chorus
E|----------------------|
B|----------------------|
G|-----------5-5--7-7---|
D|-3-3--5-5--5-5--7-7---| 4x
A|-3-3--5-5--3-3--5-5---|
E|-1-1--3-3-------------|

Chorus
E|----------------------|
B|----------------------|
G|-7-7--5-5-------7-7---|
D|-7-7--5-5--5-5--7-7---| 4x
A|-5-5--3-3--5-5--5-5---|
E|-----------3-3--------|

Verse 1: 3x
Verse 2: 4x
Pre-Chorus: 4x
Chorus: 8x

Bridge:
E|-----------|
B|-----------|
G|-----------|
D|-3-3--5-5--| 4x
A|-3-3--5-5--|
E|-1-1--3-3--|
Otros videos de esta canción
      • ½ Tono
      • A
      • Bb
      • B
      • C
      • Db
      • D
      • Eb
      • E
      • F
      • F#
      • G
      • Ab
    • Agregar a la lista

    Afinación de cifrado

    Afinador online

      OK