Cifra Club

Aprenda

Philby

Rory Gallagher

Tab de bajo: Principal
Main Riff:

G|--------|--------|
D|--------|--------|
A|-3-1----|-----33-|
E|-----44-|-4-3----|

G|--------|--------|
D|--------|--------|
A|-3-1----|-----33-|
E|-----44-|-4-3----|


This is played throughout the song, but the bassist sometimes variates or does a little 
But this should get you through it.:)
Compositor Rory Gallagher
66 reproducciones

0 comentarios

Mostrar mais comentários

¿Conseguiste tocar?

0 Tocaron 0 Ainda não

Grave um vídeo tocando Philby e mande pra gente!

00:00 / 00:00
outros vídeos desta música
repetir qualidade Automático
Outros vídeos desta música
00:00 / 00:00
Automático
OK