Enviar cifraEntrar

Máquina do Tempo

Rosa de Saron

Acordes: Principal
reproducciones 700
Tono: C#
Violão 1


        Bbm        F#         C#           Ab
Eb|-------5-|-------4-|-------5-3-2-----------|
Bb|---3-----|---3-----|---3---------5-3-2-----|
Gb|-4---4---|---------|-2---2-------------2---|
Db|---------|-5---5---|-----------------------|
Ab|---------|---------|-----------------------|
Eb|---------|---------|-----------------------|


Violão 2


          Bbm                   F#                 C#                    Ab
Eb|------------------|------------------|------------------|------------------|
Bb|------------------|------------------|------------------|------------------|
Gb|------------------|------------------|------------------|------------------|
Db|---0---4---0----4-|---0---4---0----4-|---0---4---0----4-|---4---0----4---0-|
Ab|-2---2---2----2---|------------------|-0---0---0----0---|-7---7----7---7---|
Eb|------------------|-3---3---3----3---|------------------|------------------|


Bbm     F#               C#     Ab
Cada minuto aqui é uma chance de provar o que eu mais quero
Bbm      F#           C#                  Ab
E ainda se eu conseguisse uma máquina que parasse o tempo
Bbm        F#            C#
Você estaria ao meu alcance?
 Ab
Não importa, eu te espero
Bbm                 F#                         C#
Se eu pudesse escrever a história das minhas horas
             Ab
Uma a uma seria do seu lado
Bbm               F#                     C#
Eu contaria todo dia uma história diferente
            Ab
Eu criaria frases pra sempre

F#        Ab         Bbm
Eu cantaria notas de clara esperança
F#         Ab        Bbm
E seu sorriso viraria poesia

Bbm      F#               C#      Ab
Cada minuto aqui é uma chance de provar o que eu mais quero
Bbm      F#           C#                  Ab
E ainda se eu conseguisse uma máquina que parasse o tempo
Bbm        F#            C#
Você estaria ao meu alcance?
Ab
Não importa, eu te espero
Bbm             F#              C#
Eu criaria uma ONG com seu nome
                  Ab
Eu tocaria acordeon na sua janela
Bbm               F#
Te pagaria um café na rue de La Paix
C#                  Ab
Te compraria um imóvel no Mairie d'Issy
Bbm                F#                       C#
Se eu tivesse o domínio do equilíbrio e pudesse voar,
     Ab
te traria a lua
Bbm               F#
Dominaria o meu medo de altura
        C#             Ab
e buscaria no espaço cada estrela

F#       Ab         Bbm
Inverteria o princípio da inércia
F#          Ab          Bbm
Eu encolheria a Terra e te daria

Bbm      F#               C#      Ab
Cada minuto aqui é uma chance de provar o que eu mais quero
Bbm      F#           C#                  Ab
E ainda se eu conseguisse uma máquina que parasse o tempo
Bbm        F#            C#
Você estaria ao meu alcance?
 Ab                         Bbm  F# C# Ab
Não importa, eu te espero
  • 1
  • 2
  • 3
  • 4
  • 5
  • 6
  • 7
  • 8
  • 9
  • 10
  • 11
  • 12

    0 comentarios

      mostrar mas comentarios

      ¿Conseguiste tocar?

      55tocaron2aún no

      ¡Grave un vídeo tocando Máquina do Tempo y envie para nosotros!

      00:00 / 00:00
      outros vídeos desta música
      repetirqualidadeautomática
      • automática
      Outro vídeos desta música
        00:00 / 00:00
        automática
        • automática
        Acordes para:guitarra
        dificuldadreproduccionescontribuciones
        2 versiones de Guitar Proformatodownloadscontribución
        cerrarplay/pause subir/bajar velocidad
          acordes
          cerrar
          OK
          Feedback