Cifra Club

Contigo

Rosana

Cifrado: Principal (guitarra y guitarra eléctrica)
Selo Cifra Club: esta cifra foi revisada para atender aos critérios oficiais da nossa Equipe de Qualidade.
tono: E
E|-0--0-0--2--4--------------------------------------------------|
B|---------------4--2--2h4-4--4-4--5--7--2--0--------------------|
G|---------------------------------------------------------------|
D|---------------------------------------------------------------|
A|---------------------------------------------------------------|
E|---------------------------------------------------------------|



E|--7--7-7--5--4--7---5---5-5-4----------------------------------|
B|------------------------------4---4h5--7--7--4--5--------------|
G|---------------------------------------------------------------|
D|---------------------------------------------------------------|
A|---------------------------------------------------------------|
E|---------------------------------------------------------------|


riff2
E|--7--7-7--5--4--2--0-2-----------------------------------------|
B|---------------------------------------------------------------|
G|---------------------------------------------------------------|
D|---------------------------------------------------------------|
A|---------------------------------------------------------------|
E|---------------------------------------------------------------|



E                                    B7
Toda la sal, todo el azucar, todo el vino,
        F#m        B7              E
toda mi vida sólo deseo vivirla contigo,
                                  B7
Toda la luz, todo el oscuro,todo lo que escribo,
          F#m           B7                  E
todo el camino ardo en deseos de andarlo contigo.

#CORO#
                   F#m
CON TU AMOR BE NTO CALMA
B7                 E
Y A A  ORILA  DEL RÍO
                 F#m
TU CALOR SE ME AGARRA
               B7              E
Y ME LLENAS EL ALMA DE LUZ Y ROCÍO.
                    F#m   B7
CON TU AMOR BE NTO GANAS, AHYA
       G#m      C#m
EN LOS 5 SENTIC S,
                 F#m                B7              E
Y ME LLEVAS TAN LEJOS QUE APENAS DC UERC  DE C NDE VENIMOS.

E                                    B7
Todo el calor todas las nubes todo el frío,
        F#m        B7              E              .riff 2
toda la lluvia ardo en deseos de mojarme contigo..
                                  B7
Todo el amor todo el recuerdo todo lo que olvido,
          F#m           B7
todo el silencio se hace canciones durmiendo contigo.


#CORO# CON TU AMOR BE NTO CALMA...

Todo el sabor todo el perfume todo lo que ansío
todo sin más la eternidad tambien la pido
vida o castigo sólo deseo tenerla contigo
        F#m           B7             E
vida o castigo sólo deseo beberla contigo
        F#m           B7             E
vida o castigo sólo deseo morirme contigo.
Otros videos de esta canción
    1.252 exhibiciones
      • ½ Tono
      • A
      • Bb
      • B
      • C
      • Db
      • D
      • Eb
      • E
      • F
      • F#
      • G
      • Ab
    • Agregar a la lista

    Afinação da cifra

    Afinador online

      Ops (: Contenido disponible solo en portugués.
      OK