Cifra Club

Pa ti no estoy

Rosana

Cifrado: Principal (guitarra y guitarra eléctrica)
Selo Cifra Club: esta cifra foi revisada para atender aos critérios oficiais da nossa Equipe de Qualidade.
tono: C#m
INTRO:
E|----------------------------|-----------------------------|
B|---------5------------------|---------5-------------------|
G|-----5-6---6---8------6-----|-----5-6---6----8------------|
D|-6-8---------9---9--7----6--|-6-8----------9---9---7---6--|
A|----------------------------|-----------------------------|
E|----------------------------|-----------------------------|

E|----------------------------|-----------------------------|
B|---------5------------------|---------5-------------------|
G|-----5-6---6---8------6--5--|-----5-6---6----8------6~~---|
D|-6-8---------9---9--7----6--|-6-8----------9---9---7~~----|
A|----------------------------|-----------------------------|
E|----------------------------|-----------------------------|

OUTTRO:
                          x3
E|----------------------------|--------------------------------|
B|---------5------------------|---------5----------------------|
G|-----5-6---6---8------6-----|-----5-6---6----8---------------|
D|-6-8---------9---9--7----6--|-6-8----------9---9-7~~---------|
A|----------------------------|--------------------------3-4/0-|
E|----------------------------|----------------------4-6-------|

Acordes: DEBEN SER ESTOS, porque de lo contrario no suena bien.

C#m      B       G#     A       E
E|-4--| -7---  --4---  --5---  --4-----
B|-5--| -7---  --4---  --5---  --5-----
G|-6--| -8---  --5---  --6---  --4-----
D|-6--| -9---  --6---  --7---  --6-----
A|-4--| -9---  --6---  --7---  --7-----
E|----| -7---  --4---  --5---  --4-----


Empieza repitiendo unas cuantas veces estos acordes:
C#m           B  C#m            B
Justo antes de empezar:
E|----------------------------|
B|-7--7--7--7--7/9------------|
G|-8--8--8--8--8/9------------|
D|----------------------------|
A|----------------------------|
E|----------------------------|


C#m           B  C#m            B
Que te vaya bonito, mis mejores deseos,
C#m              G#                        C#m   B
que en la vida recojas lo que siembres de bueno

(Adorno extra)

E|--7--7--7/9--7--------------|
B|--7--7--7/9--7--------------|
G|----------------------------|
D|----------------------------|
A|----------------------------|
E|----------------------------|

C#m           B  C#m             B
Que te vaya bonito, que no te vaya mal
C#m                G#                      C#m   B
y que el tiempo te deje donde tengas que estar

  E                                 B
Quisiste ser universal eclipsando mil sueños
    A                                    G#
que Dios te proteja en la celda de tu soledad

             C#m       B    A
Yo me voy a plantar al campo
 G#             C#m     B   A
o a la orilla la marea
  G#       C#m        B     A
deseo que todo te vaya de vicio
  G#          C#m   B   A   G#
me voy ahí te quedas
 G#        C#m      B    A
Me voy a vivir tranquila
     G#     C#m      B    A
sin pausa pero sin prisa
  G#        C#m     B      A    G#        C#m
deseo que todo te vaya de lujo no espero visita
      B    A                 C#m
así que no vayas que pa tí no estoy
 B           C#m     B
yo pa tí no estoy oh oh


 C#m           B     C#m               B
Salud, amor y fortuna, me llevo todo en orden
 C#m            G#
salud pa ver, amor pa ser
  C#m                   G#
fortuna pa olvidar tu nombre
 C#m             B    C#m                B
Me marcho con las lunas, donde el sol no se esconde
C#m               G#                        C#m
él me abriga el invierno y ella enciende mis noches
B      E                               B
Y tú quisiste ser universal eclipsando mil sueños
     A                                   G#
que Dios te proteja en la celda de tu soledad.

             C#m       B    A
Yo me voy a plantar al campo
 G#             C#m     B   A
o a la orilla la marea
  G#       C#m        B     A
deseo que todo te vaya de vicio
  G#          C#m   B   A   G#
me voy ahí te quedas
 G#        C#m      B    A
Me voy a vivir tranquila
     G#     C#m      B    A
sin pausa pero sin prisa
  G#        C#m     B      A    G#        C#m
deseo que todo te vaya de lujo no espero visita
      B    A                 C#m
así que no vayas que pa tí no estoy
              C#m       B    A
Que me voy a plantar al campo
 G#             C#m     B   A
o a la orilla la marea
  G#       C#m        B     A
deseo que todo te vaya de vicio
  G#          C#m   B   A   G#
me voy ahí te quedas
        C#m      B    A
Me voy a vivir tranquila
     G#     C#m      B    A
sin pausa pero sin prisa
  G#        C#m     B      A    G#        C#m
deseo que todo te vaya de lujo no espero visita
      B    A                 C#m
así que no vayas que pa tí no estoy
 B           C#m     B
yo pa tí no estoy oh oh,
           C#m     B
yo pa tí no estoy oh oh
           C#m     B
yo pa tí no estoy oh oh
C#m           B               C#m
Te dejo todo aquello que me diste
C#m           B               C#m
me llevo todo lo que ví que no quisiste
C#m           B               C#m
Me voy contenta, no tengo mas que darte,
C#m           B               C#m
me llevo todo lo que vi que noi cuidaste
C#m           B               C#m
yo pa tí no estoy, oh oh, pa tí no estoy.
Otros videos de esta canción
    3.687 exhibiciones
      • ½ Tono
      • Am
      • Bbm
      • Bm
      • Cm
      • C#m
      • Dm
      • Ebm
      • Em
      • Fm
      • F#m
      • Gm
      • G#m
    • Agregar a la lista

    Afinação da cifra

    Afinador online

      Ops (: Contenido disponible solo en portugués.
      OK