Cifra Club

Castelo do Rei

Rotação 45

Cifrado: Principal (guitarra y guitarra eléctrica)
tono: D
D                           G
 Os guardas do castelo não param de rondar
   D                      G
Vigiam noite e dia pro inimigo não entrar
       F       A
No castelo do rei
D                               G
 Batalhas são travadas se o inimigo avançar
    D                           G
O comando destacado põe seus homens pra lutar
     F                   A
E protegem o castelo do rei

          G                   D
Essa é a ordem no castelo do rei
          G                   A
Essa é a ordem no castelo do rei
          G                   D
Essa é a ordem no castelo do rei

D                               G
 Porém chegou um dia em que o rei foi derrotado
     D                    G
Um exército inimigo de muitos homens armados
    F                   A
Invadiram o castelo do rei
D                               G
  Não valeu a sua força, seu poder, proeminência
     D                   G
Um exército inimigo derrotou sua potência
     F                    A
E mataram os soldados do rei

      G                   D
Foi o fim do castelo do rei
       G                 A
Foi o fim do castelo do rei
       G                 D
Foi o fim do castelo do rei

D                               G
 Só faz parte da história tudo que aconteceu
     D                         G
Até mesmo o próprio rei com o povo ali morreu
      F                  A
Destruíram o castelo do rei

       G                  D
Foi o fim do castelo do rei
       G                  A
Foi o fim do castelo do rei
       G                  D
Foi o fim do castelo do rei

(solo - guitarra 1 - na 2ª vez, entra a segunda guitarra jundo)

(inicial)                                   (1 Vez)   (repete tudo)    (2 Vez)
E|----------------------------------------   -----                     ----------
B|--------5----7--5---------5-----7--7--5-   -----                     ---7------
G|--------5----7--5---------5-----7--7--5-   -----                     ---7------ Este solo devera
D|-----7----7--------7--7------7----------   7----                     ---------- ser feito duas
A|----------------------------------------   -----                     ---------- vezes, na 2 estra
E|----------------------------------------   -----                     ---------- a guitarra 2

(solo de dueto com a primeira guitarra - entra na 2 vez)
                                               1 Vez    Repete do início    2 Vez
E|---14--17--15-14----14-----17--17--15-      -14----                     ---17---
B|-15--15----------15----15-------------      -------                     --------
Composición de Fleury Derllys
Colaboración y revisión:
  • Fleury Derllys
  • Benke Ferraz
7 vistas
    • ½ Tono
    • A
    • Bb
    • B
    • C
    • Db
    • D
    • Eb
    • E
    • F
    • F#
    • G
    • Ab
  • Agregar a la lista

    0 comentarios

    Ver todos los comentarios

    ¿Lograste tocar?

    0 Tocaron 0 Aún no

    ¡Graba un video tocando Castelo do Rei y envíanoslo!

    00:00 / 00:00
    Outros vídeos desta música
    Repetir Calidad Automático
    Outros vídeos desta música
    00:00 / 00:00
    Automático
    OK