Cifra Club

Aprenda

Dona da Minha Vida

Rouge

Tablatura: Principal (guitarra)
Tom: Cm
[Intro] Fm  Cm
        Fm  Cm

    Fm             Cm       Fm              Cm  
E|----------------------------------------------------|
B|--6--9-8-6---6/8----------6--9-8-6---6/8-----4------|
G|-----------8-----5--3-1------------8------5---------|
D|----------------------------------------------------|
A|----------------------------------------------------|
E|----------------------------------------------------|

    Fm             Cm       Fm              Cm  
E|----------------------------------------------------|
B|--6--9-8-6---6/8----------6--9-8-6---6/8-----4------|
G|-----------8-----5--3-1------------8------5---------|
D|----------------------------------------------------|
A|----------------------------------------------------|
E|----------------------------------------------------|

[Primeira Parte]

 Fm                                       Cm
Não pense que eu vou ficar vivendo no passado
    Fm                                          Cm
Cansei, você nunca vai mudar, sempre tão complicado
            Fm
É o fim do mundo, eu me acabando num copo de gin
          Cm
Tá tão difícil aceitar que acabou

          Fm
Eu vou viver todos os sonhos que tirou de mim
          Cm 
Tudo que você disse que eu não sou

[Pré-Refrão]

Fm
Olha que ironia
                           Cm
Tudo que eu tinha era seu falso amor
  Fm
Bye bye, siga
                         Cm
Num caminho onde eu não tô
               Fm 
E agora eu vou

[Refrão]
 
    Fm             Cm       Fm              Cm  
E|----------------------------------------------------|
B|--6--9-8-6---6/8----------6--9-8-6---6/8-----4------|
G|-----------8-----5--3-1------------8------5---------|
D|----------------------------------------------------|
A|----------------------------------------------------|
E|----------------------------------------------------|

    Fm             Cm       Fm              Cm  
E|----------------------------------------------------|
B|--6--9-8-6---6/8----------6--9-8-6---6/8-----4------|
G|-----------8-----5--3-1------------8------5---------|
D|----------------------------------------------------|
A|----------------------------------------------------|
E|----------------------------------------------------|

Cm                                   Fm
  Voltei e dessa vez eu vou por cima
Cm                      
  Sou eu dona da minha vida
    Fm
Eu mereço ter o que tirou de mim
    Cm                 Fm
Vou encontrar a saída

(Oooh oooh oooh)
               Cm
Porque eu sou dona da minha vida

[Segunda Parte]

   Fm                                       Cm
Admito, tantas vezes me senti inferior a você
            Fm  
Mas quanto mais você implora e chora assim
                    Cm
Me lembro do meu poder

Fm                                  Cm
  E para de me stalkear no Instagram
                                       Fm
Que eu tô na pista sem pensar no amanhã

Ninguém é de ninguém
          Cm
Pra onde vou, quem eu sou, só eu sei

[Pré-Refrão]

Fm
Olha que ironia
                           Cm
Tudo que eu tinha era seu falso amor
  Fm
Bye bye, siga
                         Cm
Num caminho onde eu não tô
               Fm 
E agora eu vou

[Refrão]
 
    Fm             Cm       Fm              Cm  
E|----------------------------------------------------|
B|--6--9-8-6---6/8----------6--9-8-6---6/8-----4------|
G|-----------8-----5--3-1------------8------5---------|
D|----------------------------------------------------|
A|----------------------------------------------------|
E|----------------------------------------------------|

    Fm             Cm       Fm              Cm  
E|----------------------------------------------------|
B|--6--9-8-6---6/8----------6--9-8-6---6/8-----4------|
G|-----------8-----5--3-1------------8------5---------|
D|----------------------------------------------------|
A|----------------------------------------------------|
E|----------------------------------------------------|

Cm                                   Fm
  Voltei e dessa vez eu vou por cima
Cm                      
  Sou eu dona da minha vida
    Fm
Eu mereço ter o que tirou de mim
    Cm                 Fm
Vou encontrar a saída

(Oooh oooh oooh)
               Cm
Porque eu sou dona da minha vida

    Fm
Eu mereço ter o que tirou de mim
    Cm                 Fm
Vou encontrar a saída

(Oooh oooh oooh)
               Cm
Porque eu sou dona da minha vida
Compositor Aline Wirley da Silva / Fantine Tho / Jão / Joey Mattos / Karen Rodriguez / Karin Hills / Lissah Martins / Lucas Nage / Luciana Andrade / Marcelinho Ferraz / Mr. Paradise / Pedro Dash / Pedro Tofani
Colaboración y revision:
  • Getúlio Vasconcelos
2 reproducciones
    • ½ Tom
    • Am
    • Bbm
    • Bm
    • Cm
    • C#m
    • Dm
    • Ebm
    • Em
    • Fm
    • F#m
    • Gm
    • G#m
  • Adicionar à lista

    0 comentarios

    Mostrar mais comentários

    ¿Conseguiste tocar?

    0 Tocaron 0 Ainda não

    Grave um vídeo tocando Dona da Minha Vida e mande pra gente!

    00:00 / 00:00
    outros vídeos desta música
    repetir qualidade Automático
    Outros vídeos desta música
    00:00 / 00:00
    Automático
    OK