Cifra Club

A Lenda

Roupa Nova

Cifrado: Principal (guitarra y guitarra eléctrica)
tono: E
[Intro] Em  C  G  D
        Em  C  G  D
        Em  C  G  D
        Em  C  G  D

[Primeira Parte]

E                    A    B
  Bem lá no céu uma lua existe
 E                 A      B
Vivendo só no seu mundo triste
      G#             C#m      A
O seu olhar sobre a Terra lançou
 F#m7      E/G#     B4   B
Veio procurando por amor

E                    A     B
Então o mar, frio e sem carinho
E                     A     B
  Também cansou de ficar sozinho
G#                         C#m     A
   Sentiu na pele aquele brilho tocar
   F#m      E/G#         B4  B
E pela lua foi se apaixonar

[Pré-Refrão]

 F#m                           E/G#
Luz que banha a noite e faz o sol adormecer
 F#/A#                B4  B
Mostra como eu amo você

[Refrão]

            Em       C
Se a lenda dessa paixão
        G             D
Faz sorrir ou faz chorar
Em        C          G   B7
   O coração é quem sabe
          Em      C
Se a lua toca no mar
     G          D
Ela pode nos tocar
  C
Pra dizer que o amor
         B4  B7
Não se acabe

[Solo] Fm  Db  Ab  Eb 
       Fm  Db  C4  C

E|------------------------------------------|
B|---5-7-7/9-8-6-6~-------------------------|
G|-4----------------------------------------|
D|------------------------------------------|
A|------------------------------------------|
E|------------------------------------------|

E|------------------------------------------|
B|-4h6p4h6p4--------------------------------|
G|-----------6-5-3-5/6-5-3~-----------------|
D|------------------------------------------|
A|------------------------------------------|
E|------------------------------------------|

E|------------------------------------------|
B|-----------4------------------------------|
G|-1-3-3/5-5---5\3-1---3/5-1~---------------|
D|-------------------3----------------------|
A|------------------------------------------|
E|------------------------------------------|

E|---------------6--------------------------|
B|-------4-6-6/8---8-6-5~-------------------|
G|-1-3/5------------------------------------|
D|------------------------------------------|
A|------------------------------------------|
E|------------------------------------------|

[Segunda Parte]

F                   Bb     C
  Se cada um faz a sua história
F                     Bb     C
  A nossa pode ser feliz também
A                       Dm       Bb
  Se o coração diz que sim à paixão
 Gm7        F/A          C4  C
Como pode o outro dizer não?

[Pré-Refrão]

 Gm                            F/A
Luz que banha a noite e faz o sol adormecer
 G/B                  C4  C
Mostra como eu amo você

[Refrão]

            Fm       Db
Se a lenda dessa paixão
        Ab            Eb
Faz sorrir ou faz chorar
Fm        Db         Ab  C7
   O coração é quem sabe
          Fm      Db
Se a lua toca no mar
     Ab         Eb
Ela pode nos tocar
  Db
Pra dizer que o amor
         C4  C7
Não se acabe

( Fm  Db  Ab  Eb )
( Fm  Db  C4  C )

[Refrão]

            Fm       Db
Se a lenda dessa paixão
        Ab            Eb
Faz sorrir ou faz chorar
Fm        Db         Ab  C7
   O coração é quem sabe
          Fm      Db
Se a lua toca no mar
     Ab         Eb
Ela pode nos tocar
  Db
Pra dizer que o amor
         C4  C7
Não se acabe

( D  C#  D  E )

            F#m      D
Se a lenda dessa paixão
        A             E
Faz sorrir ou faz chorar
F#m        D          A   C#7
    O coração é quem sabe
          F#m     D
Se a lua toca no mar
     A          E
Ela pode nos tocar
  D
Pra dizer que o amor
         C#4  C#7
Não se acabe

            F#m      D
Se a lenda dessa paixão
        A             E
Faz sorrir ou faz chorar
F#m        D          A   C#7
    O coração é quem sabe
          F#m     D
Se a lua toca no mar
     A          E
Ela pode nos tocar
  D
Pra dizer que o amor
         C#4  C#7  F#
Não se acabe
Composición de Kiko / Nando / Ricardo Feghali
2.076 vistas
    • ½ Tono
    • A
    • Bb
    • B
    • C
    • Db
    • D
    • Eb
    • E
    • F
    • F#
    • G
    • Ab
  • Agregar a la lista

    0 comentarios

    Ver todos los comentarios

    ¿Lograste tocar?

    22 Tocaron 1 Aún no

    ¡Graba un video tocando A Lenda y envíanoslo!

    00:00 / 00:00
    Outros vídeos desta música
    Repetir Calidad Automático
    Outros vídeos desta música
    00:00 / 00:00
    Automático
    OK