Cifra Club

Aprenda

A Metade da Maçã

Roupa Nova

Tablatura: Principal (guitarra)
tono: C
Intro: G  C  G

E|-10----------7-10------10h12-10-8-7----7-8----7--7---------------|
B|----8-10--10------8-10--------------10-----10------10-8----------|
G|--------------------------------------------------------7h9p7-7--|
D|-----------------------------------------------------------------|

E|-10----------7-10------10h12-10-8-7----7-8----7------------------|
B|----8-10--10------8-10--------------10-----10--------------------|
G|-----------------------------------------------------------------|
D|-----------------------------------------------------------------|

G         G/F#
 Eu sou a voz amiga
G/E       G/B
 Eterna, apaixonada
C        Am          G C G
Eu nasci junto de você

G      G/F#
 Imaginando amores
G/E      G/B
 Harmonizando as dores
C         Cm         G
Eu cresci perto de você
Am              D7
 Afagando suas mãos
Am            C           D7
 Tudo o que pedir seu coração

Refrão:
Em  C           G      D7
 Em nome desse amor eu vou
Em         C
Recriar o mundo
G        D7
 Cada segundo
Em  C           G      D7
 Em nome desse amor eu vou
F              F/E         D7
Te entregar um sol toda manhã

A           A/G#
 Eu canto o teu futuro
A/F#       A/C#
 Tocando o teu passado
D        Bm         A D A
Eu venci tudo por você

A         A/G#
 Eu danço nos teus sonhos
A/F#       A/C#
 Tornando eternos beijos
D            Dm           A
Sempre aqui, pronto pra você

Bm            E7
A metade da maçã
Bm            D         E
Juntos ontem, hoje e amanhã

Refrão:
F#m D           A      E
 Em nome desse amor eu vou
F#m        D
Recriar o mundo
A       E
 Cada segundo
F#m D           A      E
 Em nome desse amor eu vou
G              D       E
Te entregar um sol toda manhã
G             D       E
Tudo o que precisa o coração
G         D      E
A outra metade da maçã
Composição de Kiko / Nando / Ricardo Feghali
Colaboración y revision:
  • Marcos Vasconcelos
  • Jason Araújo
  • Paulo Eduardo
342 reproducciones
  • Simplificar cifra
    • ½ Tono
    • A
    • Bb
    • B
    • C
    • Db
    • D
    • Eb
    • E
    • F
    • F#
    • G
    • Ab
  • Adicionar à lista

    0 comentarios

    Ver todos os comentários

    ¿Conseguiste tocar?

    2 Tocaram 0 Ainda não

    Grave um vídeo tocando A Metade da Maçã e nos envie!

    00:00 / 00:00
    outros vídeos desta música
    repetir qualidade Automático
    Outros vídeos desta música
    00:00 / 00:00
    Automático
    OK