Cifra Club

Aprenda

Do Bem

Roupa Nova

Tablatura: Principal (guitarra)
Tom: G
INTRO: G D Eb° Em C G Am D

e|---------------------------------------------0----------------------
B|---------0---0-1-3-1-0-----1-0-----------1-3---3-1-0-1-3-1-0--------
G|-----0-2---------------2-------2-0---0-----------------------2--0-2-
D|-0-2-------------------------------4--------------------------------

G
Eu sei
                  D
Do momento em que vi
Eb°            Em
Vi que é pra valer
        C               G
Surpreendi da sombra o sol nascer
Am           D
Sabia que seria teu
G
Jurei
                 D
Me guardar pra você
Eb°           Em
Ser feliz não era mais
     C             G
A fugaz miragem de um amor
 Am                  D7
Que a gente tenta em vão tocar

REFRÃO
     G
Eu jurei
              D7
Abrir meu coração
Eb°           Em
Confessar o que senti
  C
E nunca mais
    Am           D7
Dar meu amor pra mais ninguém
     G                 D
Eu jurei ser de mais ninguém
Eb°            Em
Te proteger de todo mal
   C              Am
Do mal de amor se morre
         D7             G
Pra se achar o amor do bem

INTRO

e|-------------------------------------0----------------------
B|-0---0-1-3-1-0-----1-0-----------1-3---3-1-0-1-3-1-0--------
G|---------------2-------2-0---0-----------------------2--0-2-
D|---------------------------4--------------------------------

G     
Guardei
              D
Teu olhar pra mim
Eb°        Em
E se congelou
    C              G
O momento exato em que te vi
   Am         D7
E soube que seria teu
G
Jurei
                 D
Me guardar pra você
Eb°           Em
Ser feliz não era mais
     C             G
A fugaz miragem de um amor
      Am             D7
Que a gente tenta em vão tocar

REFRÃO
     G
Eu jurei
              D7
Abrir meu coração
Eb°           Em
Confessar o que senti
  C
E nunca mais
    Am           D7
Dar meu amor pra mais ninguém
     G                 D
Eu jurei ser de mais ninguém
Eb°            Em
Te proteger de todo mal
   C              Am
Do mal de amor se morre
         D7             
Pra se achar o amor 

     G
Eu jurei
              D7
Abrir meu coração
Eb°           Em
Confessar o que senti
  C
E nunca mais
    Am           D7
Dar meu amor pra mais ninguém
     G                 D
Eu jurei ser de mais ninguém
Eb°            Em
Te proteger de todo mal
   C              Am
Do mal de amor se morre
         D7            G
Pra se achar o amor do bem

e|-------------------------------------0-----------------------3-
B|-0---0-1-3-1-0-----1-0-----------1-3---3-1-0-1-3-1-0-----------
G|---------------2-------2-0---0-----------------------2--0-2----
D|---------------------------4-----------------------------------
Compositor Ronaldo Bastos / Serginho
Colaboración y revision:
  • Paulo Eduardo
32 reproducciones
    • ½ Tom
    • A
    • Bb
    • B
    • C
    • Db
    • D
    • Eb
    • E
    • F
    • F#
    • G
    • Ab
  • Adicionar à lista

    0 comentarios

    Mostrar mais comentários

    ¿Conseguiste tocar?

    0 Tocaron 0 Ainda não

    Grave um vídeo tocando Do Bem e mande pra gente!

    00:00 / 00:00
    outros vídeos desta música
    repetir qualidade Automático
    Outros vídeos desta música
    00:00 / 00:00
    Automático
    OK