Cifra Club

Aprenda

Linda Demais

Roupa Nova

Tablatura: Principal (guitarra)
tono: C
[Intro] Am  F  C  G  F

[Refrão]

 C      G/B           Am  F
Linda, só você me fascina
      C    F                G
Te desejo muito além do prazer
 C     G/B               Am   F
Vista meu futuro em teu corpo
     C    F             G
E me ama como eu amo você

[Primeira Parte]

 Am        G        F                     C
Vem fazer diferente   o que mais ninguém faz
     G                  F
Faz parte de mim, me inventa outra vez
 Am         G             F                  C
Vem conquistar meu mundo,   dividir o que é seu
     G                 F                 G
Mil beijos de amor em muitos lençóis, só eu e você

[Refrão]

 C      G/B                Am   F
Linda, conte a mim teu segredo
         C     F             G
Pro meu sonho diga quem é você
 C      G/B              Am    F
Livre, nunca mais tenha medo
          C    F            G
Pois quem ama tudo pode vencer

[Primeira Parte]

 Am        G        F                     C
Vem fazer diferente   o que mais ninguém faz
     G                  F
Faz parte de mim, me inventa outra vez
 Am         G            F                  C
Vem conquistar meu mundo,  dividir o que é seu
     G                 F                 G
Mil beijos de amor em muitos lençóis, só eu e você

Linda

[Solo] C  G/B  Am  F
       C  F  G
       C  G/B  Am  F
       C  F  G

E|------------------------------------------|
B|------------------------------------------|
G|-------5/7-7-5-4------------2/4-2-0-------|
D|-2-3-5-----------5p2----0-2---------3-----|
A|----------------------3-------------------|
E|------------------------------------------|

E|------------------------------------------|
B|------------------------------------------|
G|-------2/4-2------4/5-4-5/7-5-7/9-7-------|
D|-2/3-2------3/5-3-------------------------|
A|------------------------------------------|
E|------------------------------------------|

E|--------------------------8/10-10---------|
B|--------------------5-6-8-----------------|
G|-9/10-9-10/12-10-12-----------------------|
D|------------------------------------------|
A|------------------------------------------|
E|------------------------------------------|

E|-10-8-7-----------------5/7-7-5-----------|
B|--------10-8-6-5------5-------------------|
G|------------------5-7---------------------|
D|------------------------------------------|
A|------------------------------------------|
E|------------------------------------------|

E|-7-5----------------5/7-5-------7/8-7-----|
B|-----8-6-5----5/6-5-------6/8-6-----------|
G|-----------7------------------------------|
D|------------------------------------------|
A|------------------------------------------|
E|------------------------------------------|

E|-8/10-8-10/12-10-12/13-12-13/15----17-----|
B|--------------------------------15--------|
G|------------------------------------------|
D|------------------------------------------|
A|------------------------------------------|
E|------------------------------------------|

[Primeira Parte]

 Am        G        F                     C
Vem fazer diferente   o que mais ninguém faz
     G                  F
Faz parte de mim, me inventa outra vez
 Am         G            F                  C
Vem conquistar meu mundo,  dividir o que é seu
     G                 F                 G
Mil beijos de amor em muitos lençóis, só eu e você

[Refrão]

 C      G/B           Am  F
Linda, só você me fascina
      C    F                G
Te desejo muito além do prazer
 C     G/B               Am   F
Vista meu futuro em teu corpo
     C    F             G
E me ama como eu amo você
C
  Linda
Composição de Tavinho Paes
2.015 reproducciones
    • ½ Tono
    • A
    • Bb
    • B
    • C
    • Db
    • D
    • Eb
    • E
    • F
    • F#
    • G
    • Ab
  • Adicionar à lista

    0 comentarios

    Ver todos os comentários

    ¿Conseguiste tocar?

    76 Tocaram 16 Ainda não

    Grave um vídeo tocando Linda Demais e nos envie!

    00:00 / 00:00
    outros vídeos desta música
    repetir qualidade Automático
    Outros vídeos desta música
    00:00 / 00:00
    Automático
    OK