Cifra Club

Sapato Velho

Roupa Nova

Cifrado: Principal (guitarra y guitarra eléctrica)
tono: A
[Intro]  A9  G  D  E9
         A9  G  D  A9  D  E
         A9  G  D  E9
         A9  G  D  A9  D  E
         E

E|-------------10-9h10p9-------------------------------|
B|------10-12------------10-10-12----------------------|
G|-9-11------------------------------------------------|
D|-----------------------------------------------------|
A|-----------------------------------------------------|
E|-----------------------------------------------------|

E|-------------10-9-10-9--9-10-12-10-9-----------------|
B|------10-12--------------------------12-10-----------|
G|-9-11--------------------------------------11--------|
D|-----------------------------------------------------|
A|-----------------------------------------------------|
E|-----------------------------------------------------|

E|-------------10-9h10p9-------------------------------|
B|------10-12------------10-10-12----------------------|
G|-9-11------------------------------------------------|
D|-----------------------------------------------------|
A|-----------------------------------------------------|
E|-----------------------------------------------------|

E|------------------10-9-10-9-----10-9-10-12-----------|
B|----------10-12~-------------10----------------------|
G|-9-9-9-11--------------------------------------------|
D|-----------------------------------------------------|
A|-----------------------------------------------------|
E|-----------------------------------------------------|

                     H.N
E|--------------------7--------------------------------|
B|--------------------7--------------------------------|
G|--------------------7--------------------------------|
D|-2h4p2p0---0--------7--------------------------------|
A|---------4---2-4----7--------------------------------|
E|-----------------0--7--------------------------------|

[Primeira Parte]

[Riff]

E|------------------------12-10-9h10p9----9------------|
B|-------------------3/5---------------12---10---------|
G|-2-2-4-4/6/7\6p4/2-----------------------------------|
D|-----------------------------------------------------|
A|-----------------------------------------------------|
E|-----------------------------------------------------|

 A9   D/A     E/A
Você lembra, lembra 
 D7M  C#m7  Bm7   A    G#º   F#m7  
Na__que____le    tempo eu   ti___nha
    F#m7     B/A        G#m7       C#m7
Estrelas nos olhos, um jeito de herói
F#m7       D7M   C#m7  Bm7  A
Era  mais forte  e    ve___loz
      G#º       F#m7  F7M(11+)     A9
Que qualquer mocinho de        cowboy

( D/A  E/A  D/A )

 A9   D/A     E/A
Você lembra, lembra
D7M  C#m7  Bm7  A    G#º  F#m7  
Eu  cos___tu___mava  an__dar   bem
 F#m7        B/A        G#m7     C#m7
Mais de mil léguas pra poder buscar
  F#m7     D7M  C#m7  Bm7  A
Flores de ma___io     a___zuis
  G#º        F#m7  F7M(11+)  A9
E os seus cabelos  en____feitar

( D/A  E/A  A4(7/9) )

[Segunda Parte]

D        E/D      C#m7     F#4  F#
Água da fonte cansei de beber
  B   F#/A#  G#m7  F#   G#m6  Eb
Pra  não     en___ve__lhe____cer

( G#/Bb  Eb7M  Eb7(4/9) )

 G#      Bb/G#    Gm7       C4  C
Como quisesse roubar da manhã
F   C/E   Dm  C   G#º  A9  D/A  E/A
Um lin___do  pôr de   sol

 D7M  C#m7  Bm7  A   G#º  F#m7     F#m7     B/A
Ho___je    não  co_lho   mais   as flores de maio
     G#m7       C#7(9)  Bbm7     Eb7(9)
Nem sou mais veloz      como os heróis

Bm7   E7(9)      A9   D/A    E/A
É... talvez  eu seja simplesmente
 D7M  C#m7  Bm7  A  G#º  F#m7  
Como  um   sa___pa_to   ve___lho
 F#m7      B/A       G#m7    C#m7
Mas ainda sirvo, se você quiser
 F#m7    D7M  C#m7  Bm7  A
Basta você   me    cal__çar
       G#º        F#m7  F7M(11+)       A9
Que eu aqueço o frio   dos       seus pés

( D/A  E/A  G6 )

[Solo] F  G/F  F  G/F
       A9  D/A  E/A  A7(4/9)
       F  G/F   Dm/F  E4 E
       A7(4/9)  A7(9)

E|-----5-8-7-5-7-8/10-7--------------------------------|
B|---6------------------8------------------------------|
G|-7---------------------------------------------------|
D|-----------------------------------------------------|
A|-----------------------------------------------------|
E|-----------------------------------------------------|

E|-------5---8-7-8/10-8--10-10/12--9-9h10p9------------|
B|-5/6-----6--------------------------------10-12-10---|
G|-----7-----------------------------------------------|
D|-----------------------------------------------------|
A|-----------------------------------------------------|
E|-----------------------------------------------------|

E|-------9-12-9-10----9--------------------------------|
B|-10-12-----------12---10-12-9-10-10-12-9-10----------|
G|--------------------------------------------11-12----|
D|-----------------------------------------------------|
A|-----------------------------------------------------|
E|-----------------------------------------------------|

E|-----------------------------------------------------|
B|---------------10-12-b13r12p10-12~-------------------|
G|-------9-10-12---------------------------------------|
D|-11-12-----------------------------------------------|
A|-----------------------------------------------------|
E|-----------------------------------------------------|

E|-----5------8-------10-------12-------13-15-13-12----|
B|-5h6---6/10---10/12----12/13----13/15----------------|
G|-----------------------------------------------------|
D|-----------------------------------------------------|
A|-----------------------------------------------------|
E|-----------------------------------------------------|

E|-7---------------------------------------------------|
B|-7h9p7---7h9-----------------------------------------|
G|-------9---------------------------------------------|
D|-----------------------------------------------------|
A|-----------------------------------------------------|
E|-----------------------------------------------------|

E|------9-10-12-9-10----9------------------------------|
B|-9/12--------------12---10-12-9-10-10-12-9-10--------|
G|----------------------------------------------11-12--|
D|-----------------------------------------------------|
A|-----------------------------------------------------|
E|-----------------------------------------------------|

E|-----------------------------------------------------|
B|-----------------------------------------------------|
G|-------9-11~-----------------------------------------|
D|-11-12-----------------------------------------------|
A|-----------------------------------------------------|
E|-----------------------------------------------------|

[Segunda Parte]

D        E/D      C#m7     F#4  F#
Água da fonte cansei de beber
  B   F#/A#  G#m7  F#   G#m6  Eb
Pra  não     en___ve__lhe____cer

( G#/Bb  Eb7M  Eb7(4/9) )

 G#      Bb/G#    Gm7       C4  C
Como quisesse roubar da manhã
F   C/E   Dm  C   G#º  A9  D/A  E/A
Um lin___do  pôr de   sol

 D7M  C#m7  Bm7  A   G#º  F#m7     F#m7     B/A
Ho___je    não  co_lho   mais   as flores de maio
     G#m7       C#7(9)  Bbm7     Eb7(9)
Nem sou mais veloz      como os heróis

Bm7   E7(9)      A9   D/A    E/A
É... talvez  eu seja simplesmente
 D7M  C#m7  Bm7  A  G#º  F#m7  
Como  um   sa___pa_to   ve___lho
 F#m7      B/A       G#m7    C#m7
Mas ainda sirvo, se você quiser
 F#m7    D7M  C#m7  Bm7  A
Basta você   me    cal__çar
       G#º        F#m7  F7M(11+)       A9
Que eu aqueço o frio   dos       seus pés

    E9
Talvez eu seja simplesmente

Como um sapato velho

Mas ainda sirvo, se você quiser

Basta você me calçar

Que eu aqueço o frio dos seus pés

[Final] A9  D/A  E/A  D/A 
        A9  D/A  E/A  D/A   A9
Composición de Cláudio Nucci / Mu / Paulinho Tapajós
5.260 vistas
  • Simplificar cifrado
    • ½ Tono
    • A
    • Bb
    • B
    • C
    • Db
    • D
    • Eb
    • E
    • F
    • F#
    • G
    • Ab
  • Agregar a la lista

    0 comentarios

    Ver todos los comentarios
    00:00 / 00:00
    Outros vídeos desta música
    Repetir Calidad Automático
    Outros vídeos desta música
    00:00 / 00:00
    Automático
    Capítulos
    • Tocando a Música
    • Apresentação / Equipamentos
    • Acordes Introdução
    • Tocando Introdução
    • Ritmo da Música
    • Frase Introdução
    • Acordes Primeira Parte
    • Tocando Primeira Parte
    • Ritmo Primeira Parte
    • Acordes Segunda Parte
    • Tocando Segunda Parte
    • Dicas Terceira Parte
    • Acordes Base do Solo
    • Tocando Terceira Parte - Solo
    • Dicas Final
    • Tocando Solo Introdução
    • Solo Introdução Lento
    • Ensinando Solo Introdução - Parte 1
    • Ensinando Solo Introdução - Parte 2
    • Ensinando Solo Introdução - Parte 3
    • Ensinando Solo Introdução - Parte 4
    • Tocando Solo Principal
    • Solo Principal Lento
    • Ensinando Solo Principal - Parte 1
    • Ensinando Solo Principal - Parte 2
    • Ensinando Solo Principal - Parte 3
    • Ensinando Solo Principal - Parte 4
    • Ensinando Solo Principal - Parte 5
    • Ensinando Solo Principal - Parte 6
    • Ensinando Solo Principal - Parte 7
    • Ensinando Solo Principal - Parte 8
    • Encerramento
    OK