Cifra Club

Volta Pra Mim

Roupa Nova

Cifrado: Principal (guitarra y guitarra eléctrica)
tono: D
[Intro] D  A/C#  Bm  G  D/A  
        G/A  D  G  A

E|-------------------------------------------|
B|-7-8-10-10-12-10-8-7-----------------------|
G|---------------------9-7--7-6-6------------|
D|--------------------------------9----------|
A|-------------------------------------------|
E|-------------------------------------------|

E|-------------------------------------------|
B|---------7--8-7-------10-------------------|
G|---6-7-9--------9-7-6---------6-7-9-7------|
D|-9--------------------------9--------------|
A|-------------------------------------------|
E|-------------------------------------------|

E|-------------------------------------------|
B|--10-8-7-----------------------------------|
G|---------9-7-6-----7----6-7-7/9--7~--------|
D|----------------9--------------------------|
A|-------------------------------------------|
E|-------------------------------------------|

[Primeira Parte]

D           G/D
Amanheci sozinho
    D         D5+
Na cama um vazio
 D                  Bm7    
Meu coração que se foi
      Em7               G/A
Sem dizer se voltava depois
      D        D/F#  
Sofrimento meu
        G     Gm6
Não vou aguentar
        D          
Se a mulher 
                    G/A     
Que eu nasci pra viver
             D   G  A
Não me quer mais

[Segunda Parte]

 D                  G/D        
Sempre depois das brigas  
 D              D5+
Nós nos amamos muito
 D             Bm7    
Dia e noite a sós
      Em7                 G/A 
O universo era pouco pra nós
         D      D/F#
O que aconteceu
       G           Gm6
Pra você partir assim
       D                  G/A
Se te fiz algo errado perdão
           D
Volta pra mim

[Pré-Refrão]

Bb9                    F  
    Essa paixão é meu mundo
C/G                   G
    Um sentimento profundo
D                      A    
  Sonho acordado um segundo 
                E  E4  E
Que você vai ligar         
C/G                 G   
    O telefone que toca
D                     A
  Eu digo alô sem resposta
C/G                    G        
    Mas não desliga escuta 
                   A4   A
O que eu vou te falar

[Refrão]

      D             A/C#     
Eu te amo e vou gritar 
          Bm7        D/F#  G
Pra todo mundo ouvir
       D          Bm7       A4  A
Ter você é meu desejo de viver
       D           A/C#     
Sou menino e teu amor 
          Bm7        D/F#  G
É que me faz crescer
         D           G/A         D  G  A
E me entrego corpo e alma pra você

[Segunda Parte]

 D                  G/D        
Sempre depois das brigas  
 D              D5+
Nós nos amamos muito

[Solo] D  Bm7  Em7  G/A
       D  D/F#  G  Gm6
       D  G/A  D  D9

E|-10-9h10p9---------------------------------|
B|-----------12-10-8--8h10-8-7---------------|
G|-----------------------------9-------------|
D|-------------------------------------------|
A|-------------------------------------------|
E|-------------------------------------------|

E|---7-9-10-12-12b14r12------12b14r12b14r----|
B|-10-------------------10-10------------10~-|
G|-------------------------------------------|
D|-------------------------------------------|
A|-------------------------------------------|
E|-------------------------------------------|

E|-------------------------------------------|
B|-8-8-10-10b12---7-8~-7-8-10-7h8p7----------|
G|-------------9-9-----------------9-7-7-----|
D|---------------------------------------9-7-|
A|-------------------------------------------|
E|-------------------------------------------|

E|----------------------------------10-12-15-|
B|-------------------10-12-10--10-12---------|
G|-----7-9-7~-7-9/11-------------------------|
D|-7h9---------------------------------------|
A|-------------------------------------------|
E|-------------------------------------------|

E|-14----------------------------------------|
B|----15-------------------------------------|
G|-------14--14-15~--------------------------|
D|-------------------------------------------|
A|-------------------------------------------|
E|-------------------------------------------|

[Pré-Refrão]

Bb9                    F  
    Essa paixão é meu mundo
C/G                   G
    Um sentimento profundo
D                      A    
  Sonho acordado um segundo 
                E  E4  E
Que você vai ligar         
C/G                 G   
    O telefone que toca
D                     A
  Eu digo alô sem resposta
C/G                    G        
    Mas não desliga escuta 
                   A4  A
O que eu vou te falar

[Refrão]
                    
Eu te amo e vou gritar 
     
Pra todo mundo ouvir
      
Ter você é meu desejo de viver
       D           A/C#     
Sou menino e teu amor 
          Bm7        D/F#  G
É que me faz crescer
         D           G/A         D  
E me entrego corpo e alma pra você

( G  D/F#  Em7 )

      D             A/C#     
Eu te amo e vou gritar 
          Bm7        D/F#  G
Pra todo mundo ouvir
       D          Bm7       A4  A
Ter você é meu desejo de viver
       D           A/C#     
Sou menino e teu amor 
          Bm7        D/F#  G
É que me faz crescer
         D           G/A         D  
E me entrego corpo e alma pra você

[Final] G  A  D  G  A

E|-------------------------------------------|
B|--10-8-7-----------------------------------|
G|---------9-7-6----6-7----6-7-9--7~---------|
D|----------------9-----9--------------------|
A|-------------------------------------------|
E|-------------------------------------------|
Composición de Cleberson Horsth / Ricardo Feghali
8.462 vistas
    • ½ Tono
    • A
    • Bb
    • B
    • C
    • Db
    • D
    • Eb
    • E
    • F
    • F#
    • G
    • Ab
  • Agregar a la lista

    0 comentarios

    Ver todos los comentarios
    00:00 / 00:00
    Otros videos de esta canción
    Repetir Calidad Automático
    Otros videos de esta canción
    00:00 / 00:00
    Automático
    OK