Cifra Club

Whisky A Go Go

Roupa Nova

Cifrado: Principal (guitarra y guitarra eléctrica)
tono: A
[Intro] C7

   C7
E|-----0---------------0--------------------|
B|-----1-------1-------1---X---1------------|
G|-----3---x---3---3---3---X---3------------|
D|-2---2---x---2---2---2---X---2------------|
A|-3-------x---3-----------1----------------|
E|-----------------3------------------------|

[Primeira Parte]

[Tab - Primeira Parte]

[Parte 1 De 4]
   C7
E|-----0---------------0--------------------|
B|-----1-------1-------1---X---1------------|
G|-----3---x---3---3---3---X---3------------|
D|-2---2---x---2---2---2---X---2------------|
A|-3-------x---3-----------1----------------|
E|-----------------3------------------------|

Parte 2 de 4 
   F7
E|---------1---------------1----------------|
B|-----1---1---4-----------4---4------------|
G|-----2---x---2-------2---x---2------------|
D|-----1---x---1-------1---x---1------------|
A|-3-------x-------3-------x----------------|
E|-1---------------1------------------------|

   C7
E|-----0---------------0--------------------|
B|-----1-------1-------1---X---1------------|
G|-----3---x---3---3---3---X---3------------|
D|-2---2---x---2---2---2---X---2------------|
A|-3-------x---3-----------1----------------|
E|-----------------3------------------------|

Parte 3 de 4
   G                      
E|-----3---------------3-------3------------|
B|-----3---3---3-------3---3---3------------|
G|-----4---4---4-------4---4---4------------|
D|-5---5---x---5---5---5---x---5------------|
A|-5-------x---5---5-------x----------------|
E|-3---------------3------------------------|

   F                      
E|-----1---------------1-------1------------|
B|-----1---1---1-------1---1---1------------|
G|-----2---2---2-------2---2---2------------|
D|-3---3---x---3---3---3---x---3------------|
A|-3-------x---3---3-------x----------------|
E|-1---------------1------------------------|

   C7
E|-----0---------------0--------------------|
B|-----1-------1-------1---X---1------------|
G|-----3---x---3---3---3---X---3------------|
D|-2---2---x---2---2---2---X---2------------|
A|-3-------x---3-----------1----------------|
E|-----------------3------------------------|

Parte 4 de 4
   C7                        
E|-----0---------------0--------------------|
B|-----1-------1-------1---X---1------------|
G|-----3---x---3---3---3---X---3------------|
D|-2---2---x---2---2---2---X---2------------|
A|-3-------x---3----------------------------|
E|-----------------0-------1----------------|

   G  
E|-----3---3---3---3---3---3---3------------|
B|-----3---3---3---3---3---3---3------------|
G|-x---4---4---4---4---4---4---4------------|
D|-x---5---5---5---5---5---5---5------------|
A|-x---5---5---5---5---5---5---5------------|
E|-x---3---3---3---3---3---3---3------------|

C7
   Foi numa festa, gelo e Cuba Libre

E na vitrola Whisky a Go Go

À meia luz o som do Jonnhy Rivers

Aquele tempo que você sonhou

          F7
Senti na pele a tua energia
              C7 
Quando peguei de leve a tua mão
           F7
A noite inteira passa num segundo
         C7  
O tempo voa mais do que a canção

          G                                    
Quase no fim da festa 
     F                        C7 
Num beijo, então, você se rendeu
          G                      
Na minha fantasia
   F               C7  G
O mundo era você e eu

[Refrão]

[Tab - Refrão]

[Parte 1 De 6]
   C                      
E|-----0---------------0--------------------|
B|-----1-------1-------1---X---1------------|
G|-----0---x---0---0---0---X---0------------|
D|-2---2---x---2---2---2---X---2------------|
A|-3-------x---3----------------------------|
E|-----------------0-------3----------------|

Parte 2 de 6
   Am7
E|-----0---------------0--------------------|
B|-----1-------1-------1---X----------------|
G|-0---0---x---0---0---0---X---0------------|
D|-2---2---x---2---2---2---X---2------------|
A|-0-------x---0---0-----------0------------|
E|-------------------------3----------------|

Parte 3 de 6
   F
E|-----1---------------1-------1------------|
B|-----1---1---1-------1---1---1------------|
G|-----2---2---2-------2---2---2------------|
D|-3---3---x---3---3---3---x---3------------|
A|-3-------x---3---3-------x----------------|
E|-1---------------1------------------------|

Parte 4 de 6
   G
E|-----3---------------3-------3------------|
B|-----3---3---3-------3---3---3------------|
G|-----4---4---4-------4---4---4------------|
D|-5---5---x---5---5---5---x---5------------|
A|-5-------x---5---5-------x----------------|
E|-3---------------3------------------------|

Parte 5 de 6
   C                        
E|-----0---------------0--------------------|
B|-----1-------1-------1---X---1------------|
G|-----0---x---0---0---0---X---0------------|
D|-2---2---x---2---2---2---X---2------------|
A|-3-------x---3----------------------------|
E|-----------------0-------1----------------|

Parte 6 de 6
   G  
E|-----3---3---3---3---3---3---3------------|
B|-----3---3---3---3---3---3---3------------|
G|-x---4---4---4---4---4---4---4------------|
D|-x---5---5---5---5---5---5---5------------|
A|-x---5---5---5---5---5---5---5------------|
E|-x---3---3---3---3---3---3---3------------|

C                        Am7
  Eu perguntava, do you wanna dance?
C                        Am7
  E te abraçava, do you wanna dance?
     F            
Lembrar você
    G                    C  G
Um sonho a mais não faz mal
C                        Am7
  Eu perguntava, do you wanna dance?
C                        Am7
  E te abraçava, do you wanna dance?
     F            
Lembrar você
    G                    C  G
Um sonho a mais não faz mal

[Primeira Parte]

C7
   Foi numa festa, gelo e Cuba Libre

E na vitrola Whisky a Go Go

À meia luz o som do Jonnhy Rivers

Aquele tempo que você sonhou

          F7
Senti na pele a tua energia
              C7 
Quando peguei de leve a tua mão
           F7
A noite inteira passa num segundo
         C7  
O tempo voa mais do que a canção

          G                                    
Quase no fim da festa 
     F                        C7 
Num beijo, então, você se rendeu
          G                      
Na minha fantasia
   F               C7  G
O mundo era você e eu

[Refrão]

C                        Am7
  Eu perguntava, do you wanna dance?
C                        Am7
  E te abraçava, do you wanna dance?
     F            
Lembrar você
    G                    C  G
Um sonho a mais não faz mal
C                        Am7
  Eu perguntava, do you wanna dance?
C                        Am7
  E te abraçava, do you wanna dance?
     F            
Lembrar você
    G                    C  G
Um sonho a mais não faz mal

[Solo] C7  F7  C7  G  F  C7  G

[Terceira Parte]

[Tab - Terceira Parte]

   ↓   ↑   ↓   ↓   ↓   ↑   ↓   ↑
E|-----x---------------x-------x------------|
B|-----x---x---x-------x---x---x------------|
G|-----x---x---x-------x---x---x------------|
D|-x---x---x---x---x---x---x---x------------|
A|-x-------x---x---x-------x----------------|
E|-x---------------x------------------------|

   G  
E|-----3---3---3---3---3---3---3------------|
B|-----3---3---3---3---3---3---3------------|
G|-x---4---4---4---4---4---4---4------------|
D|-x---5---5---5---5---5---5---5------------|
A|-x---5---5---5---5---5---5---5------------|
E|-x---3---3---3---3---3---3---3------------|

Hei, hei - hei hei 

Hei, hei hei - hei, hei hei

Hei - hei, ho - ho

Hei - hei, ho - ho
G
Ôoooo oo oo

[Refrão Final]

[Tab - Refrão Final]

[Parte 1 De 6]
   C                      
E|-----0---------------0--------------------|
B|-----1-------1-------1---X---1------------|
G|-----0---x---0---0---0---X---0------------|
D|-2---2---x---2---2---2---X---2------------|
A|-3-------x---3----------------------------|
E|-----------------0-------3----------------|

Parte 2 de 6
   Am7
E|-----0---------------0--------------------|
B|-----1-------1-------1---X----------------|
G|-0---0---x---0---0---0---X---0------------|
D|-2---2---x---2---2---2---X---2------------|
A|-0-------x---0---0-----------0------------|
E|-------------------------3----------------|

Parte 3 de 6
   F
E|-----1---------------1-------1------------|
B|-----1---1---1-------1---1---1------------|
G|-----2---2---2-------2---2---2------------|
D|-3---3---x---3---3---3---x---3------------|
A|-3-------x---3---3-------x----------------|
E|-1---------------1------------------------|

Parte 4 de 6
   G
E|-----3---------------3-------3------------|
B|-----3---3---3-------3---3---3------------|
G|-----4---4---4-------4---4---4------------|
D|-5---5---x---5---5---5---x---5------------|
A|-5-------x---5---5-------x----------------|
E|-3---------------3------------------------|

Parte 5 de 6
   C                        
E|-----0---------------0--------------------|
B|-----1-------1-------1---X---1------------|
G|-----0---x---0---0---0---X---0------------|
D|-2---2---x---2---2---2---X---2------------|
A|-3-------x---3----------------------------|
E|-----------------0-------3----------------|

Parte 6 de 6
   Am7
E|-----0---------------0--------------------|
B|-----1-------1-------1---X----------------|
G|-0---0---x---0---0---0---X---0------------|
D|-2---2---x---2---2---2---X---2------------|
A|-0-------x---0-----------0----------------|
E|-----------------3-----------3------------|

C                        Am7
  Eu perguntava, do you wanna dance?
C                        Am7
  E te abraçava, do you wanna dance?
     F            
Lembrar você
    G                    C  G
Um sonho a mais não faz mal
C                        Am7
  Eu perguntava, do you wanna dance?
C                        Am7
  E te abraçava, do you wanna dance?
     F            
Lembrar você
    G                    C  Am7
Um sonho a mais não faz mal
     F            
Lembrar você
    G                    C  Am7
Um sonho a mais não faz mal
     F            
Lembrar você
    G                    C  C7
Um sonho a mais não faz mal

[Tab - Solo Final]
                                         C7
E|---------------------------------------0--|
B|-x-3b4r3--1--3p1-----------------------1--|
G|-x-2b3r2-----2p0--2--0--2b3r2--0-------3--|
D|-x----------------3--1--3b4r3--1--2----2--|
A|-x--------------------------------3----3--|
E|------------------------------------------|
00:00 / 00:00
Otros videos de esta canción
Repetir
Otros videos de esta canción
Composición de Michael Sullivan / Paulo Passadas
Colaboración y revisión:
  • Gustavo Cunha
  • Lucas Kappaun
448 vistas
  • Simplificar cifrado
    • ½ Tono
    • A
    • Bb
    • B
    • C
    • Db
    • D
    • Eb
    • E
    • F
    • F#
    • G
    • Ab
  • Agregar a la lista

    0 comentarios

    Ver todos los comentarios

    ¿Lograste tocar?

    17 Tocaron 2 Aún no

    ¡Graba un video tocando Whisky A Go Go y envíanoslo!

    00:00 / 00:00
    Capítulos
    • Tocando a Música
    • Apresentação / Equipamentos
    • Tocando Introdução e Primeira Parte
    • Ensinando Ritmo da Música
    • Ensinando Introdução
    • Ensinando Primeira Parte
    • Acordes Refrão
    • Tocando Refrão Final
    • Ensinando Refrão
    • Tocando Terceira Parte
    • Ensinando Terceira Parte
    • Ensinando Solo Final
    • Encerramento
    OK