Cifra Club

Fading Like A Flower

Roxette

Cifrado: Principal (guitarra y guitarra eléctrica)
tono: F
[Intro] F  Bb  Dm  C
        F  Bb  Dm  C
        F  Bb  Dm  C
        Bb5

[Primeira Parte]

      Dm
In a time
           Am            Dm
Where the sun descends alone
         F         C        Dm
I ran a long long way from home
           Am                    G
To find a heart that's made of stone

         Dm
I will try
        Am            Dm
I just need a little time
             F          C         Dm
To get your face right out of my mind
            Am                     G
To see the world through different eyes

[Refrão]

F             Bb            Dm    C
Every time I see you oh I try to hide away
 F        Bb                 C         F
But when we meet it seems I can't let go
F               Bb                Dm      C              Bb   C
Every time you leave the room I feel I'm fading like a flower

[Segunda Parte]

          Dm
Tell me why?
          Am                 Dm
When i scream there's no reply
        F                 C          Dm
When i reach out there's nothing to find
         Am                     G
When I sleep I break down and cry

[Refrão]

F             Bb            Dm    C
Every time I see you oh I try to hide away
 F        Bb                 C         F
But when we meet it seems I can't let go
F               Bb               Dm       C              Bb   C
Every time you leave the room I feel I'm fading like a flower

               D5  C5  F5  G5 
Fading like a rose
               D5  C5  F5  G5
Fading like a rose
                D5  C5  F5  G5
Beaten by the storm
              A
Talking to myself, getting washed by the rain
                       Dm
It's such a cold cold town

[Solo] Dm  F  C 
       Dm  F  C
       Dm  C  G

E|----------------------------------------------------|
B|----------------------------------------------------|
G|-7--7-9b10r9--7-5--5-5-5--7--5~-5-------------------|
D|----------------------------------------------------|
A|----------------------------------------------------|
E|----------------------------------------------------|

E|----------------------------------------------------|
B|-------------------10----10-------------------------|
G|-7--7-9b10r9--7-5--12h14-14-12p10-12----------------|
D|----------------------------------------------------|
A|----------------------------------------------------|
E|----------------------------------------------------|

E|----------------------------------------------------|
B|----------------------------------------------------|
G|-19--19/17-17/14-14/12-12/10-10/9-9/7-7/5-----------|
D|----------------------------------------------5-----|
A|-17--17/15-15/12-12/10-10/8--8/7--7/5-5/3-----5-----|
E|----------------------------------------------3-----|

E|--------15------------------------------------------|
B|-----------15---------------------------------------|
G|-14b16--------16b14-12--12-14b16-12----12/14--------|
D|---------------------------------------------15~----|
A|----------------------------------------------------|
E|----------------------------------------------------|

F             Bb            Dm    C
Every time I see you oh I try to hide away
 F        Bb                 C         F
But when we meet it seems I can't let go
F               Bb               Dm       C              Bb   
Every time you leave the room I feel I'm fading like a flower

G             C             Em    D
Every time I see you oh I try to hide away
G         C                  D         G
But when we meet it seems I can't let go
G                C               Em       D              C
Every time you leave the room I feel I'm fading like a flower

G             C             Em    D
Every time I see you oh I try to hide away
G         C                  D         G
But when we meet it seems I can't let go
G                C               Em       D              C
Every time you leave the room I feel I'm fading like a flower

[Final] G  C  Em  D 
        G  C  Em  D
00:00 / 00:00
Otros videos de esta canción
Repetir
Otros videos de esta canción
Composición de Per Gessle
Colaboración y revisión:
4.853 exhibiciones
    • ½ Tono
    • A
    • Bb
    • B
    • C
    • Db
    • D
    • Eb
    • E
    • F
    • F#
    • G
    • Ab
  • Agregar a la lista
    00:00 / 00:00
    OK