Cifra Club

Things Will Never Be The Same

Roxette

Cifrado: Principal (guitarra y guitarra eléctrica)
tono: A
[Intro] Eb  Bb/D  Cm    
        Eb  Bb/D  Cm    
        Eb  Bb/D  Fm
        Eb  Bb/D  Cm 
        Eb  Cm  Bb  F

[Primeira Parte]

        Cm
Lay it down, pull my heart to the ground
 Eb             Bb           Ab         Eb/G           Bb
Time's getting cold now the leaves all turn hard and blue
        Cm                              
And I know when I gaze to the sun 
 Eb          Bb
No place to hide, I got
 Ab          Eb/G     Bb             F
No where to run from you, away from you

[Pré-Refrão]

 Fm                   Eb
Hold me now, girl, I don't know when
  Db               Ab
When we will ever meet again
 Fm                    Eb
That was then, baby, this is now
    Db             Ab
I try to get over you

[Refrão]

 Bb     Fm              Ab    Eb/G   Db
Losing you things will never be the same
                 Eb        Fm
Can you hear me call your name?
        Ab        Eb/G  Bbm
If we changed it back again
              Db    Eb        Cm 
Things would never be in you hand

[Segunda Parte]

Oh babe, I don't understand
               Eb          Bb
You've got the eyes of a child
         Ab          Eb/G  Bb         F
But you hurt like a man always do, always do

[Pré-Refrão]

 Fm                    Eb
Touch me now, girl, I don't know when
  Db               Ab
When we will ever meet again
  Fm                   Eb
That was then, baby, this is now
 Db                  Gm  Ab  
Time won't get over you

[Refrão]

 Ab Bb   Fm              Ab    Eb/G   Db
Lo_sing you things will never be the same
                 Eb        Fm
Can you hear me call your name?
        Ab        Eb/G  Bbm
If we changed it back again
              Db    Eb         
Things would never be

[Solo] Gm  Bb  Gm  F 
       Gm  Bb  Gm  C   
       G  Bb  C

E|------------------------------------------|
B|---11------------11-----------------------|
G|-12--12-10-12--12--12-10--10--------------|
D|------------------------12--12-10-12------|
A|------------------------------------------|
E|------------------------------------------|

E|------------------------------------------|
B|------------------------------------------|
G|------------------------------------------|
D|-10-8-10/12-10-8-----10-12-10~------------|
A|------------------10----------------------|
E|------------------------------------------|

E|------------------------------------------|
B|------------------------------------------|
G|---------------10----12-10-12-------------|
D|-10-8-----8-10----------------------------|
A|-------10---------------------------------|
E|------------------------------------------|

E|------------------------------------------|
B|------------------------------------------|
G|------------------------------------------|
D|-5-5-5-x-x-------8-x-x-------8------------|
A|-----------5-5-8-------5-5-8--------------|
E|------------------------------------------|

E|------------------------------------------|
B|-6-------------------8-10p8\1-------------|
G|-5-5b-5r-5-5p3-------7-10-----------------|
D|------3--3-----5p3h5----------------------|
A|-5-5--------------------------------------|
E|------------------------------------------|

E|-------------------------14-15~-----------|
B|-10~-11~-13-13b-13p11---------------------|
G|----------------------12------------------|
D|------------------------------------------|
A|------------------------------------------|
E|------------------------------------------|

[Refrão]

        Gm              Bb    F/A    Eb
Losing you things will never be the same
                 F         Gm
Can you hear me call your name?
        Bb        F/A   Cm
If we changed it back again
  Eb                F      Gm    
Things would never be the same

             Bb    F/A    Eb
Things will never be the same
                 F         Gm
Can you hear me call your name?
        Bb        F/A   Cm
If we changed it back again
              Eb    F      Dm    
Things would never be the same
00:00 / 00:00
Otros videos de esta canción
Repetir
Otros videos de esta canción
Composición de Per Gessle
Colaboración y revisión:
  • Thiago Almeida
  • julian conceição
  • Evans Hossel
1.046 exhibiciones
    • ½ Tono
    • A
    • Bb
    • B
    • C
    • Db
    • D
    • Eb
    • E
    • F
    • F#
    • G
    • Ab
  • Agregar a la lista
    00:00 / 00:00
    OK