Cifra Club

Open Your Heart

Royal Straight Flush

Cifrado: Principal (guitarra y guitarra eléctrica)
tono: C
|-----------------------------------    |                               |
|------1-------1--------1-----1-----    |                               |
|-----2-2-----2-2------0-0---0-0---2    | 2X                            |
|----2---2---2---2----2---2-0---0-2-    |                               |
|-0-0--------------0-3-----2--------    |                               |
|---------0-1-----------------------    |                               |
                                                                        |       
                                                                        |
|---------3-------------3------------------------------ |               |
|------3---3---------3---3---------1-----1---------1--- |               |
|-----0-0---0-------0-0---0-------0-0---0-0-------0-0-- | 2x            | 2X
|----0---0---0-----0---0---0-----2---2-0---0-----0---0- |               |
|---------------------------0-3-3-----2---------------- |               |
|-0-3---------3-2-1-------------------------0-3-3-----3 |               |
                                                                        |  
                                                                        |
|-------------2---------------- |                                       |       
|------3-----3-3----0-------3-- |                                       |
|-----0-0---2---2--2-------0-0- | 2x                                    |
|----0---0-0------2-------0---0 |                                       |
|------------------------------ |                                       |
|-0-3------------1---1-2-3----- |                                       |
                                                                        
                                                                        
        |-------------------------------        |                       
        |-------------------------------        |                       
   G    |------------7-7-7--------------        | 3x                    
        |------7-7-7-7-7-7-5-5-5-5/7-7-7        |                       
        |------7-7-7-5-5-5-5-5-5-5/7-7-7        |                       
        |-12/1-5-5-5-------3-3-3-3/5-5-5        |                       

        
        |---------
        |---------
        |---------
        |7-5------
        |---7-5---
        |------7-5

        |------------------------       |
        |------------------------       |       
        |-------------5-5-5-5----       | 2x
        |-7-7-7-5-5-5-5-5-5-5-5-7       |
        |-7-7-7-5-5-5-3-3-3-3-5-7       |
        |-5-5-5-3-3-3---------3-5       |

        |---------------------- 
        |---------------------- 
        |-------7-7-7----------         
        |-7-7-7-7-7-7-5-5-5-5/7 
        |-7-7-7-5-5-5-5-5-5-5/7 
        |-5-5-5-------3-3-3-3/5 

Galera, esquenta não, mais aqui é só a base, logo qeu eu conseguir a base eu trago para vocês.
Não esqueçam que essa musica não tem letra..xD~~
00:00 / 00:00
Otros videos de esta canción
Repetir
Otros videos de esta canción
Compositor no encontrado.
Colaboración y revisión:
  • João Moura
14 vistas
    • ½ Tono
    • A
    • Bb
    • B
    • C
    • Db
    • D
    • Eb
    • E
    • F
    • F#
    • G
    • Ab
  • Agregar a la lista

    0 comentarios

    Ver todos los comentarios

    ¿Lograste tocar?

    0 Tocaron 0 Aún no

    ¡Graba un video tocando Open Your Heart y envíanoslo!

    00:00 / 00:00
    OK