Cifra Club

Plantación Adentro

Rubén Blades

Cifrado: Principal (guitarra y guitarra eléctrica)
Selo Cifra Club: esta cifra foi revisada para atender aos critérios oficiais da nossa Equipe de Qualidade.
tono: Eb
intro

G|--5--3--5---7--| -5--7--8---7--5------
D|--7--5--7---9--| -7--9--10--9--7------
A|---------------| ---------------------

Es el año 1745 en América latina el indio
trabaja bajo el palo implacable del mayoral
jajajajajajajajaja

sombra son la gente alalalalala

sombra son la gente alalalalala

plantación adentro cámara   es donde se sabe la verdad

es donde se aprende la verdad


             D#7 Fm7   F#maj7   Fm7        D#maj7   A#7       D#
dentro del follaje y de la espesura donde todo viaje lleva a la amargura

es donde se sabe la cámara jajajajaja es donde se aprende la verdad


                       D#   Gm                            Cm     G#7
camilo  manrique  falleció   por  golpes  que  daba  el  mayoral  y  fue

 A#7          D#7        A#7                 D#
sepultado sin llorar ja una cruz de palo y naa mas



E|-----------------------------------------|
B|---4-3-6-3--------------6-6-3-----4------|
G|-3---------3-5-3--------------3-5--------|
D|-----------------------------------------|

pregon

D#     Bb                G#7       A#7     D#
camilo manrique falleció plantación adentro cámara

D#     Bb                G#7       A#7     D#
plantación adentro cámara sombra son la gente y nada mas

camilo ma.........

se murio el indio camilo por palo que daba el mayoral

camilo ma........

y el medico de turno dijo asi muerte por causa natural

camilo ma......

claro si despues de una cruz de palo que te mueras es normal

camilo ma.....

acostarse tarde y despierta temprano rumbo pal cañaveral

camilo ma........

tierra selva sol y viento indio y palo de mayoral

camilo ma.......


arreglo 1

E|--------------------| -----------------------
B|-7-7-7-6-6-5-5-6-7--| -4-7-7-7-6-6-4---------
G|--------------------| ----------------6-4-3--
D|--------------------| -----------------------
A|--------------------| -----------------------

E|---------------------| -----------------------
B|---------------------| -----------------------
G|-3-7-7-7-6-6-3-3-5-6-| -3-7-7-7-6-6-3-1-------
D|---------------------| -----------------4-1---


arreglo 2

E|-8--10--8------| e-6--8--6-------
B|-9--11--9--9---| B-7--9--7--7----
G|-----------10--| G----------8----


intro

G|--5--3--5---7--| -5--7--8---7--5----
D|--7--5--7---9--| -7--9--10--9--7----
A|---------------| -------------------

E|-----------------------------------------|
B|---4-3-6-3--------------6-6-3-----4------|
G|-3---------3-5-3--------------3-5--------|
D|-----------------------------------------|



D#     Bb                G#7       A#7     D#
camilo manrique falleció plantación adentro cámara

D#     Bb                G#7       A#7     D#
plantación adentro cámara sombra son la gente y nada mas

camilo ma.............

selva verde selva clara selva nunca dice nada

camilo ma.....

recoje el cafe y corre pa´lla si no te pega el mayoral

camilo ma.....

ehhhh camilo manrique fallecio y lo enterraron sin llorar

camilo ma............

de su trsite monumento una cruz de palo y naa mas

camilo ma......

oye lo que digo es la verdad sombra son la gente y nada mas

camilo ma.......


final

E|--------------------| -----------------------
B|-7-7-7-6-6-5-5-6-7--| -4-7-7-7-6-6-4---------
G|--------------------| ----------------6-4-3--
D|--------------------| -----------------------
A|--------------------| -----------------------

E|---------------------| -----------------------
B|---------------------| -----------------------
G|-3-7-7-7-6-6-3-3-5-6-| -3-7-7-7-6-6-3-1-------
D|---------------------| -----------------4-1---
00:00 / 00:00
Otros videos de esta canción
Repetir
Otros videos de esta canción
200 exhibiciones
    • ½ Tono
    • A
    • Bb
    • B
    • C
    • Db
    • D
    • Eb
    • E
    • F
    • F#
    • G
    • Ab
  • Agregar a la lista

Afinación de cifrado

Afinador online

    00:00 / 00:00
    OK