Cifra Club

Todo mi Amor

Paulina Rubio

Cifrado: Principal (guitarra y guitarra eléctrica)
Selo Cifra Club: esta cifra foi revisada para atender aos critérios oficiais da nossa Equipe de Qualidade.
tono: F
0:02
E |11-11-11--10--9----------------------------------------------|
B|-----------------11---10-8-8h10------------------------------|
G|-------------------------------------------------------------|
D|---------------------------------10-10-10--12--14| —12--10-9—-7|
A|-------------------------------------------------------------|
E|-------------------------------------------------------------|

0:15                         0:23
E|--------------------------|----------------------------------|
B |6--8--10----8--8----6--6--|---6--8--10---8—6--5----6---------|
G|--------------------------| 9---------------------------------|
D|--------------------------|----------------------------------|
A|--------------------------|----------------------------------|
E|--------------------------|----------------------------------|

0:33                         0:41
E|--------------------------|--------------------------|
B |10p8-6-6-/8---6-----------|10p8-8p6-6—8h10~---------|
G|--------------------------|--------------------------|
D|--------------------------|--------------------------|
A|--------------------------|--------------------------|
E|--------------------------|--------------------------|

1:12
E|----------------------------------------------------|
B|----------------------------------------------------|
G |7-----10-10-10-12-12/14-12—10-9--7------------------|
D|----------------------------------------------------|
A|----------------------------------------------------|
E|----------------------------------------------------|
E|----------------------------------------------------|

1:59
E|-------------------------------------------------8-/|
B |5/10-10----13-13-13-13-13-13-13-11-10-11-10-8-10----|
G|----------------------------------------------------|
D|----------------------------------------------------|
A|----------------------------------------------------|
E|----------------------------------------------------|
    | 3 |                                          |  3  |
E|-----------------------------------------------------------|
B|-----------------------------------------------------------|
G |7-7-7-7-7--9-10-9---/12-12-12-10-9--/15-15-15-14-12-14~--15|
D|-----------------------------------------------------------|
A|-----------------------------------------------------------|
E|-----------------------------------------------------------|



2:20
E|--------------------------|
B |8h10-8-8-6-8-6-5-6--------|
G|--------------------------|
D|--------------------------|
A|--------------------------|
E|--------------------------|
Otros videos de esta canción
    111 exhibiciones
      • ½ Tono
      • A
      • Bb
      • B
      • C
      • Db
      • D
      • Eb
      • E
      • F
      • F#
      • G
      • Ab
    • Agregar a la lista

    Afinação da cifra

    Afinador online

      Ops (: Contenido disponible solo en portugués.
      OK