Cifra Club

Nightfall On Marsco S Tu Mo Leannan

Runrig

Cifrado: Principal (guitarra y guitarra eléctrica)
Selo Cifra Club: esta cifra foi revisada para atender aos critérios oficiais da nossa Equipe de Qualidade.
tono: Em
    Em  E/G  Em   Em7    Em   E/G  Em   Em7    Em   E/G  Em   Em7    Em   E/G  Em    D
E|--0----0----0----0---|--0----0----0----0---|--0----0----0----0---|--0----0----0----2-|
B|--0----0----0----0---|--0----0----0----0---|--0----0----0----0---|--0----0----0----3-|
G|--0----0----0----0---|--0----0----0----0---|--0----0----0----0---|--0----0----0----2-|
D|--2----2----2----0---|--2----2----2----0---|--2----2----2----0---|--2----2----2----0-|
A|--2----2----2----2---|--2----2----2----2---|--2----2----2----2---|--2----2----2----0-|
E|--0----3----0----0---|--0----3----0----0---|--0----3----0----0---|--0----3----0----0-|





intro
  Em Em D   Em Em D    *Em                     D        *Em                      D
E|-------------------|--------------------------------|--------------------------------|
B|-------------------|---8-----8-----8--------8-8-----|---8-----8-----8--------8-8-----|
G|/9-/9-7~-/9-/9-7~--|--9-9-7-9-9-7-9-9-7---7-----9~--|--9-9-7-9-9-7-9-9-7---7-----9~--|
D|-------------------|--------------------/9----------|--------------------/9----------|
A|-------------------|--------------------------------|--------------------------------|
E|-------------------|--------------------------------|--------------------------------|

  *Em                     D         *Em                 D       Em Em D   Em Em D    
E|--------------------------------|----------------------------|-------------------|
B|---8-----8-----8--------8-8-----|---8-----8-----8------------|-------------------|
G|--9-9-7-9-9-7-9-9-7---7-----9~--|--9-9-7-9-9-7-9-9-7---------| /9-/9-7~-/9-/9-7~--|
D|--------------------/9----------|--------------------/9-7-5--|-------------------|
A|--------------------------------|----------------------------|-------------------|
E|--------------------------------|----------------------------|-------------------|

Em            D       Em            D
Nightfall on Marsco, Cuchullin in sheets
Em             D                C             D            Em Em D Em Em D
This world of Maclean's words around us like spirits released
Em         D       Em            D
I came to love you, I came to drink
Em                 D            C             D       Em    
Though dancing in darkness, I'm cup running over and drunk

  *Em                     D         *Em                 D       Em Em D   Em Em D    
E|--------------------------------|----------------------------|-------------------|
B|---8-----8-----8--------8-8-----|---8-----8-----8------------|-------------------|
G|--9-9-7-9-9-7-9-9-7---7-----9~--|--9-9-7-9-9-7-9-9-7---------| /9-/9-7~-/9-/9-7~--|
D|--------------------/9----------|--------------------/9-7-5--|-------------------|
A|--------------------------------|----------------------------|-------------------|
E|--------------------------------|----------------------------|-------------------|

Em            D       Em        D
Darkest of prisons, oldest of nights
Em                     D           C              D            Em Em D Em Em D
For the dawning round Garsbheinn, in patience we wait for the light
     Em      D       Em        D
Cause I am a climber, I am a thief, 
Em             D           C                  D         Em    
O kingdom of Gabbro your strong chains won't hold this love

Em                
'S tu mo Leannan, Leannan o
Em                
'S tu mo Leannan, Leannan o
Em                
'S tu mo Leannan, Leannan o

Em                
'S tu mo Leannan, Leannan o
Em                
'S tu mo Leannan, Leannan o
Em                
'S tu mo Leannan, Leannan o

Em                
'S tu mo Leannan, Leannan o
Em                
'S tu mo Leannan, Leannan o
Em
'S tu mo Leannan, 'S tu mo Leannan
Em                
'S tu mo Leannan, Leannan o

Em                
'S tu mo Leannan, Leannan o
Em
'S tu mo Leannan, 'S tu mo Leannan
Em                
'S tu mo Leannan, Leannan o

Em                
'S tu mo Leannan, Leannan o
Em                                  
'S tu mo Leannan, 'S tu mo Leannan, Leannan o
Em                
'S tu mo Leannan, Leannan o

Em
'S tu mo Leannan, 
Em                
'S tu mo Leannan, Leannan o
Em                
'S tu mo Leannan, Leannan o
Em                                  
'S tu mo Leannan, 'S tu mo Leannan
  Em  Em D  Em Em D     *Em                     D         *Em               D
E|-------------------|--------------------------------|----------------------|
B|-------------------|---8-----8-----8--------8-8-----|---8-----8-----8------|
G|/9-/9-7~-/9-/9-7~--|--9-9-7-9-9-7-9-9-7---7-----9~--|--9-9-7-9-9-7-9-9-7---|
D|-------------------|--------------------/9----------|----------------------|
A|-------------------|--------------------------------|----------------------|
E|-------------------|--------------------------------|----------------------|
Otros videos de esta canción
    0 exhibiciones
      • ½ Tono
      • Am
      • Bbm
      • Bm
      • Cm
      • C#m
      • Dm
      • Ebm
      • Em
      • Fm
      • F#m
      • Gm
      • G#m
    • Agregar a la lista

    Afinação da cifra

    Afinador online

      Ops (: Contenido disponible solo en portugués.
      OK