Cifra Club

2112

Rush

Cifrado: Principal (guitarra y guitarra eléctrica)
Selo Cifra Club: esta cifra foi revisada para atender aos critérios oficiais da nossa Equipe de Qualidade.
tono: Em
[Part I - Overture]
E|----------|--------------|---------------|-------------|
B|----------|--------------|---------------|-------------|
G|----------|----2---------|-5-----7-------|-5-----------|
D|----------|-2--2---------|-5--5--7-------|-5-----------|
A|----------|-2--0---------|-3--5--5-------|-3-----------|
E|----------|-0------------|----3----------|-------------|
  
E|----------------|--------------|--------------|--------------|
B|----------------|--------------|--------------|--------------|
G|-2--2--2--------|----2---------|-5------------|----2---------|
D|-2--2--2--------|-2--2---------|-5--5---------|-2--2---------|
A|-0--0--0--------|-2--0---------|-3--5---------|-2--0---------|
E|----------------|-0------------|----3---------|-0------------|
  
E|---------------------|--------------|--------------|------------------|
B|---------------------|--------------|--------------|------------------|
G|-5-----7---5-----7---|----2---------|-5------------|----2----5-----7--|
D|-5--5--7---5--5--7---|-2--2---------|-5--5---------|-2--2----5--5--7--|
A|-3--5--5---3--5--5---|-2--0---------|-3--5---------|-2--0----3--5--5--|
E|----3---------3------|-0------------|----3---------|-0----------3-----|
  
E|------------|--------------------|
B|------------|--------------------|
G|----2-------|-5------------------|
D|-2--2-------|-5--5---------------|
A|-2--0-------|-3--5---------------|
E|-0----------|----3---------------|
  
E|------------------------------------|
B|------------------------------------|
G|------------------------------------|
D|----2---5-----7---5-----7---2--2--2-|
A|-2--0---3--5--5---3--5--5---0--0--0-|
E|-0---------3---------3--------------|
   
E|-15-14-12-15----------|----------------------|
B|-------------15-------|-13----13-15----------|
G|----------------14----|----12-------14-------|
D|-------------------12-|----------------14----|
A|----------------------|-------------------12-|
E|----------------------|----------------------|

   (............................PA Y 4 TIMES...................
E|----------------------------|--------------------------------|
B|----------------------------|--------------------------------|
G|----------------------------|--------------------------------|
D|-4--4-4-4--4-4-4--4-4-4-4---|--------------------------------|
A|-2--2-2-2--2-2-2--2-2-2-2---|-5---5-5-5---5-5-5---5-5-5------|
E|----------------------------|-3---3-3-3---3-3-3---3-3-3------|

 ......................................) 
E|----------------------------------------------------|-----------------------|
B|----------------------------------------------------|-----------------------|
G|----------------------------------------------------|-----------------------|
D|-----------------------9--7--5--4--4-4-4---4-4-4--7-|-----------------------|
A|-7---7-7-7---7-7-7-7---7--5--3--2--2-2-2---2-2-2--5-|-----------------------|
E|-5---5-5-5---5-5-5-5--------------------------------|----0-2-3-5-3-0--------|

 (..........PA Y 4 TIMES................................)
E|------------------------|---------------------------------------------|
B|-2-2---4-4---7-7--6-6---|-2-2---4-4---7-7------------------3--7-7--4-4|
G|-2-2---4-4---7-7--6-6---|-2-2---4-4---7-7------------------4--8-8--4-4|
D|-2-2---4-4---7-7--6-6---|-2-2---4-4---7-7------------------4--8-8--4-4|
A|------------------------|----------------------------------2--6-6--2-2|
E|------------------------|------------------0-2-3-5-3-0----------------|

 (PA Y 2 TIMES......)
E|--------------------|
B|--------------------|
G|--------------------|
D|-4---------7-6------|
A|-2--5--7---5-4-7-9--|
E|----3--5-------5-7--|

E|--------------------------------------------------------------|
B|--------------------------------------------------------------|
G|------------4-------------4------------4------------7---9---4-|
D|------------4-------------4------------4------------7-7-9---4-|
A|------------2-------------2------------2------------5-7-7---2-|
E|0-2-3-5-3-0---0-2-3-5-3-0--0-2-3-5-3-0--0-2-3-5-3-0---5-------|

E|-------------------------------------------------|
B|-------------------------------------------------|
G|--------------4-----------4---------------7---9--|
D|--------------4-----------4---------------7-7-9--|
A|--------------2-----------2---------------5-7-7--|
E|--0-2-3-5-3-0--0-2-3-5-3-0--0-2-3-5-3-0-----5----|

E|---------------------------------|
B|---------------------------------|
G|---------------------------------|
D|---------------------------------|
A|-7--7-7-7-7-7-7-7-7-7-7-7-7-7-7-3|
E|-5--5-5-5-5-5-5-5-3-3-3-3-3-3-3-5|
                          
E|-------------------------|
B|-----1-1-1-1-1-1---------|
G|-----2-2-2-2-2-2---------|
D|-----3-3-3-3-3-3----5----|
A|3----3-3-3-3-3-3--5-3-5--|
E|5----1-1-1-1-1-1--3---3--|

E|-3---------------------------------------------578--865--|
B|-4------------------------------------------568--------8-|
G|----4----0-2-0-2-0-2-0-2-0-2-0-----------567-------------|
D|-----5-------------------------3------567----------------|
A|-----------------------------------567-------------------|
E|---------------------------------------------------------|

 B.....                          B
E|----------------------------------------------------------------|
B|10-----8-10-8----------------------------------------------6----|
G|-------------9--7-9-7-7---3-2-0--7-5---57-75---------------7----|
D|---------------------9----------------7--7--7--575-75-3----7----|
A|--------------------------------------------------7--------5----|
E|----------------------------------------------------------------|

 (.............PA Y 4 TIMES.....)
E|-----------------------------------------------------------------|
B|----3-3-3-3-3-6---2-3-3-3-3-3------------------------------------|
G|-2--4-4-4-4-4-7---2-4-4-4-4-4-4-----9-9-9-9---7-7-7-7---5-5-5-5--|
D|-2--4-4-4-4-4-7---2-4-4-4-4-4-5-----9-9-9-9---7-7-7-7---5-5-5-5--|
A|-0--2-2-2-2-2-5---0-2-2-2-2-2-5-----7-7-7-7---5-5-5-5---3-3-3-3--|
E|------------------------------3----------------------------------|

E|-----------------------------------------------------------------|
B|----3-3-3-3-3-6---2-3-3-3-3-3------------------------------------|
G|-2--4-4-4-4-4-7---2-4-4-4-4-4-4------9-9-9-9---7-7-7-7---5-5-5-5-|
D|-2--4-4-4-4-4-7---2-4-4-4-4-4-5------9-9-9-9---7-7-7-7---5-5-5-5-|
A|-0--2-2-2-2-2-5---0-2-2-2-2-2-5------7-7-7-7---5-5-5-5---3-3-3-3-|
E|------------------------------3----------------------------------|

E|-------------------------------|
B|---3-3-3-3-3-6---2-3-3-3-3-3---|
G|2--4-4-4-4-4-7---2-4-4-4-4-4-4-|
D|2--4-4-4-4-4-7---2-4-4-4-4-4-5-|
A|0--2-2-2-2-2-5---0-2-2-2-2-2-5-|
E|-----------------------------3-|

E|-----------------------|------------------------|
B|-------4-------4-------|-------4-------4--------|
G|---4-6---6-4-6---4-4---|---4-6---6-4-6---4-4----|
D|-4-------------------4-|-4-------------------4--|
A|-----------------------|------------------------|
E|-----------------------|------------------------|

E|-----------------------|------------------------|
B|-------4-------4-------|-------4-------4--------|
G|---4-6---6-4-6---4-4---|---4-6---6-4-6---4-4----|
D|-4-------------------4-|-4--------------------2-|
A|-----------------------|----------------------2-|
E|-----------------------|----------------------0-|

'And the meek shall inherit the earth'
E|------------3-------|-----------------|---|
B|--------------1---1-|-----3-----------|-1-|
G|---------0----------|-------0---0---0-|-2-|
D|-------2--------2---|-0-4-------------|-2-|
A|-----3--------------|---------3---2---|-0-|
E|-0-2----------------|-----------------|---|

[Part II - The Temples of Syrinx]
E|---------------------------------------|----------------------------|
B|---------------------------------------|----------------------------|
G|----2-2-2------2-2-2---5---------5---7-|----2-2-2------2-2-2---5----|
D|-2--2-2-2---2--2-2-2---5--5-5-5--5-5-7-|-2--2-2-2---2--2-2-2---5--5-|
A|-2--0-0-0---2--0-0-0---3--5-5-5--3-5-5-|-2--0-0-0---2--0-0-0---3--5-|
E|-0----------0-------------3-3-3----3---|-0----------0-------------3|-|

E|---------------------------------------|----------------------------|
B|---------------------------------------|----------------------------|
G|----2-2-2------2-2-2---5---------5---7-|----2-2-2------2-2-2---5----|
D|-2--2-2-2---2--2-2-2---5--5-5-5--5-5-7-|-2--2-2-2---2--2-2-2---5--5-|
A|-2--0-0-0---2--0-0-0---3--5-5-5--3-5-5-|-2--0-0-0---2--0-0-0---3--5-|
E|-0----------0-------------3-3-3----3---|-0----------0-------------3|-|

 'We've taken care of everything, the words you read and the songs you
  sing, the pictures that give pleasure to your eye'
E|---------------------------------------|----------------------------|
B|---------------------------------------|----------------------------|
G|----2-2-2------2-2-2---5---------5---7-|----2-2-2------2-2-2---5----|
D|-2--2-2-2---2--2-2-2---5--5-5-5--5-5-7-|-2--2-2-2---2--2-2-2---5--5-|
A|-2--0-0-0---2--0-0-0---3--5-5-5--3-5-5-|-2--0-0-0---2--0-0-0---3--5-|
E|-0----------0-------------3-3-3----3---|-0----------0-------------3|-|

 'It's one for all and all for one. We work together, common sons.
  Never need to wonder how or why'
E|---------------------------------------|----------------------------|
B|---------------------------------------|----------------------------|
G|----2-2-2------2-2-2---5---------5---7-|----2-2-2------2-2-2---5----|
D|-2--2-2-2---2--2-2-2---5--5-5-5--5-5-7-|-2--2-2-2---2--2-2-2---5--5-|
A|-2--0-0-0---2--0-0-0---3--5-5-5--3-5-5-|-2--0-0-0---2--0-0-0---3--5-|
E|-0----------0-------------3-3-3----3---|-0----------0-------------3|-|

               'We are the priests of the temples of syrinx'
E|-------------|----2--2------3--3------5--5-----|
B|-------------|----3--3------3--3------5--5-----|
G|-------------|-4--4--4------4--4------6--6-----|
D|-------------|-4---------5---------7---------9-|
A|-------0-----|-2---------5---------7---------9-|
E|-0-2-3---3-0-|-----------3---------5---------7-|

               'Our great computers fill our hallowed halls'
E|-------------|----2--2------3--3------5--5-----|
B|-------------|----3--3------3--3------5--5-----|
G|-------------|-4--4--4------4--4------6--6-----|
D|-------------|-4---------5---------7---------9-|
A|-------0-----|-2---------5---------7---------9-|

               'We are the priests of the temples of Syrinx'
E|-------------|----2--2------3--3------5--5-----|
B|-------------|----3--3------3--3------5--5-----|
G|-------------|-4--4--4------4--4------6--6-----|
D|-------------|-4---------5---------7---------9-|
A|-------0-----|-2---------5---------7---------9-|
E|-0-2-3---3-0-|-----------3---------5---------7-|
   
               'All gifts of life are held within our walls'
E|-------------|----2--2------3--3------5--5-----|-------------|
B|-------------|----3--3------3--3------5--5-----|-------------|
G|-------------|-4--4--4------4--4------6--6-----|-------------|
D|-------------|-4---------5---------7---------9-|-------------|
A|-------0-----|-2---------5---------7---------9-|-------0-----|
E|-0-2-3---3-0-|---------------------------------|-0-2-3---3-0-|

E|--------------------|--------------------|
B|--------------------|--------------------|
G|-4-4-4-4--4--4-4--7-|-4-4-4-4--4--4-4----|
D|-4-4-4-4--4--4-4--7-|-4-4-4-4--4--4-4--5-|
A|-2-2-2-2--2--2-2--5-|-2-2-2-2--2--2-2--5-|
E|--------------------|------------------3-|

E|--------------------|--------------------|---------------|
B|--------------------|--------------------|---------------|
G|-4-4-4-4--4--4-4--7-|-4-4-4-4--4--4-4----|---------------|
D|-4-4-4-4--4--4-4--7-|-4-4-4-4--4--4-4--5-|-5-5-5-5-5-5-5-|
A|-2-2-2-2--2--2-2--5-|-2-2-2-2--2--2-2--5-|-5-5-5-5-5-5-5-|
E|--------------------|------------------3-|-3-3-3-3-3-3-3-|

 'Look around this world we've made, equality our stock in trade, come and
  join the brotherhood of man'
E|---------------------------------------|----------------------------|
B|---------------------------------------|----------------------------|
G|----2-2-2------2-2-2---5---------5---7-|----2-2-2------2-2-2---5----|
D|-2--2-2-2---2--2-2-2---5--5-5-5--5-5-7-|-2--2-2-2---2--2-2-2---5--5-|
A|-2--0-0-0---2--0-0-0---3--5-5-5--3-5-5-|-2--0-0-0---2--0-0-0---3--5-|
E|-0----------0-------------3-3-3----3---|-0----------0-------------3|-|

 'Oh what a nice, contented world, let the banners be unfurled. Hold the
  red star proudly high in hand'
E|---------------------------------------|----------------------------|
B|---------------------------------------|----------------------------|
G|----2-2-2------2-2-2---5---------5---7-|----2-2-2------2-2-2---5----|
D|-2--2-2-2---2--2-2-2---5--5-5-5--5-5-7-|-2--2-2-2---2--2-2-2---5--5-|
A|-2--0-0-0---2--0-0-0---3--5-5-5--3-5-5-|-2--0-0-0---2--0-0-0---3--5-|
E|-0----------0-------------3-3-3----3---|-0----------0-------------3|

               'We are the priests of the temples of syrinx'
E|-------------|----2--2------3--3------5--5-----|
B|-------------|----3--3------3--3------5--5-----|
G|-------------|-4--4--4------4--4------6--6-----|
D|-------------|-4---------5---------7---------9-|
A|-------0-----|-2---------5---------7---------9-|
E|-0-2-3---3-0-|-----------3---------5---------7-|

               'Our great computers fill our hallowed halls'
E|-------------|----2--2------3--3------5--5-----|
B|-------------|----3--3------3--3------5--5-----|
G|-------------|-4--4--4------4--4------6--6-----|
D|-------------|-4---------5---------7---------9-|
A|-------0-----|-2---------5---------7---------9-|

               'We are the priests of the temples of Syrinx'
E|-------------|----2--2------3--3------5--5-----|
B|-------------|----3--3------3--3------5--5-----|
G|-------------|-4--4--4------4--4------6--6-----|
D|-------------|-4---------5---------7---------9-|
A|-------0-----|-2---------5---------7---------9-|
E|-0-2-3---3-0-|-----------3---------5---------7-|
   
               'All gifts of life are held within our walls'
E|-------------|----2--2------3--3------5--5-----|-------------|
B|-------------|----3--3------3--3------5--5-----|-------------|
G|-------------|-4--4--4------4--4------6--6-----|-------------|
D|-------------|-4---------5---------7---------9-|-------------|
A|-------0-----|-2---------5---------7---------9-|-------0-----|
E|-0-2-3---3-0-|-----------3---------5---------7-|-0-2-3---3-0-|

E|--------------------|--------------------|
B|--------------------|--------------------|
G|-4-4-4-4--4--4-4--7-|-4-4-4-4--4--4-4----|
D|-4-4-4-4--4--4-4--7-|-4-4-4-4--4--4-4--5-|
A|-2-2-2-2--2--2-2--5-|-2-2-2-2--2--2-2--5-|
E|--------------------|------------------3-|

E|--------------------|--------------------|
B|--------------------|--------------------|
G|-4-4-4-4--4--4-4--7-|-4-4-4-4--4--4-4----|
D|-4-4-4-4--4--4-4--7-|-4-4-4-4--4--4-4--5-|
A|-2-2-2-2--2--2-2--5-|-2-2-2-2--2--2-2--5-|
E|--------------------|------------------3-|

E|--3--------2-----------------------------|
B|----3---3----2---2--3--------------------|
G|------4--------3----4--------------------|
D|--------------------4--------------------|
A|--------------------2--------------------|
E|--3--------2-----------------------------|

[Part III - Discovery/IV - Presentation]
E|--------------------------------------------------------------------|
B|-----2----2h3--2----3p3-----7--7h8--7---9~---9--9h10--9-------------|
G|----------2---------2-------7--7----7---9~---9--9-----9-------------|
D|-------2--2h4----2--4p2-----7--7h9--7---9~---9--9h11--9-------------|
A|--0~----------------0----0--------------0-----------------0---------|
E|--------------------------------------------------------------------|

E|--------------------------------------------------------------------|
B|-----2----2h3--2----3p3-----7--7h8--7---9~---9--9h10--9-------------|
G|----------2---------2-------7--7----7---9~---9--9-----9-------------|
D|-------2--2h4----2--4p2-----7--7h9--7---9~---9--9h11--9-------------|
A|--0~----------------0----0--------------0-----------------0---------|
E|--------------------------------------------------------------------|

 'I can't wait to share this new wonder'
E|--------------------------------------------------------------------|
B|-----2----2h3--2----3p3-----7--7h8--7---9~---9--9h10--9-------------|
G|----------2---------2-------7--7----7---9~---9--9-----9-------------|
D|-------2--2h4----2--4p2-----7--7h9--7---9~---9--9h11--9-------------|
A|--0~----------------0----0--------------0-----------------0---------|
E|--------------------------------------------------------------------|

 'The people will all see its light'
E|--------------------------------------------------------------------|
B|-----2----2h3--2----3p3-----7--7h8--7---9~---9--9h10--9-------------|
G|----------2---------2-------7--7----7---9~---9--9-----9-------------|
D|-------2--2h4----2--4p2-----7--7h9--7---9~---9--9h11--9-------------|
A|--0~----------------0----0--------------0-----------------0---------|
E|--------------------------------------------------------------------|

 'Let them all make their own music'
E|--------------------------------------------------------------------|
B|-----2----2h3--2----3p3-----7--7h8--7---9~---9--9h10--9-------------|
G|----------2---------2-------7--7----7---9~---9--9-----9-------------|
D|-------2--2h4----2--4p2-----7--7h9--7---9~---9--9h11--9-------------|
A|--0~----------------0----0--------------0-----------------0---------|
E|--------------------------------------------------------------------|

 'The priests praise my name on this night'
E|--------------------------------------------------------------------|
B|-----2----2h3--2----3p3-----7--7h8--7---9~---9--9h10--9-------------|
G|----------2---------2-------7--7----7---9~---9--9-----9-------------|
D|-------2--2h4----2--4p2-----7--7h9--7---9~---9--9h11--9-------------|
A|--0~----------------0----0--------------0-----------------0---------|
E|--------------------------------------------------------------------|
 
E|------------5--5~---5-5-----------------------------------|
B|------------5--5~---5-5---7-7~-8--7--7--7.-8-----7~--7----|
G|------6-6~--6--6~---6-6---7-7~-7--7--7--7.-7-----7~--7----|
D|--7~--7-7~--7--7~---7-7---7-7~-7--7--7--7.-7--7--7~--7----|
A|--7~--7-7~--7--7~---7-7---5-5~-5--5--5--5.-5--5--5~--5----|
E|--5~--5-5~--5--5~---5-5-----------------------5-----------|

E|------------5--5~---5-5-----------------------------------|
B|------------5--5~---5-5---7-7~-8--7--7--7.-8-----7~--7----|
G|------6-6~--6--6~---6-6---7-7~-7--7--7--7.-7-----7~--7----|
D|--7~--7-7~--7--7~---7-7---7-7~-7--7--7--7.-7--7--7~--7----|
A|--7~--7-7~--7--7~---7-7---5-5~-5--5--5--5.-5--5--5~--5----|
E|--5~--5-5~--5--5~---5-5-----------------------5-----------|

 'I know it's most unusual, to come before you so'
E|-----------------|-----------------------------------------|
B|-2--3-3--7--5-5\-|--2--3-3---9--3--2-----------------------|
G|-2--4-4--7--6-6\-|--2--4-4---9--4--2-----------------------|
D|-2--4-4--7--6-6\-|--2--4-4---9--4--2-----------------------|
A|-0--0-0-----0-0--|--0--0-0---------0-----------------------|
E|-----------------|-----------------------------------------|

 'But I've found an ancient miracle, I thought that you should know'
E|-----------------|-----------------------------------------|
B|-2--3-3--7--5-5\-|--2--3-3---9--14--14\--------------------|
G|-2--4-4--7--6-6\-|--2--4-4---9--14--14\--------------------|
D|-2--4-4--7--6-6\-|--2--4-4---9--14--14\--------------------|
A|-0--0-0-----0-0--|--0--0-0---------------------------------|
E|-----------------|-----------------------------------------|

 'Listen to my music'
E|--------------------------------------------------------------|
B|-2--2---2-2-3p2-------7--7h8--7----9--9--9h10--9--------------|
G|-2--------------2-----7--7----7----9--9--9-----9--------------|
D|-2----2---------------7--7h9--7----9--9--9h11--9--------------|
A|-0------------------------------------------------------------|
E|--------------------------------------------------------------|

 'And hear what it can do'
E|--------------------------------------------------------------|
B|-2--2---2-2-3p2-------7--7h8--7----9--9--9h10--9--------------|
G|-2--------------2-----7--7----7----9--9--9-----9--------------|
D|-2----2---------------7--7h9--7----9--9--9h11--9--------------|
A|-0------------------------------------------------------------|
E|--------------------------------------------------------------|

 'There's something here as strong as life'
E|--------------------------------------------------------------|
B|-2--2---2-2-3p2-------7--7h8--7----9--9--9h10--9--------------|
G|-2--------------2-----7--7----7----9--9--9-----9--------------|
D|-2----2---------------7--7h9--7----9--9--9h11--9--------------|
A|-0------------------------------------------------------------|
E|--------------------------------------------------------------|

 'I know that it will reach you'
E|--------------------------------------------------------------|
B|-2--2---2-2-3p2-------7--7h8--7----9--9--9h10--9--------------|
G|-2--------------2-----7--7----7----9--9--9-----9--------------|
D|-2----2---------------7--7h9--7----9--9--9h11--9--------------|
A|-0------------------------------------------------------------|
E|--------------------------------------------------------------|

 'Yes we know, It's nothing new. It's just a waste of time'
E|------------5--5~---5-5-----------------------------------|
B|------------5--5~---5-5---7-7~-8--7--7--7.-8-----7~--7----|
G|------6-6~--6--6~---6-6---7-7~-7--7--7--7.-7-----7~--7----|
D|--7~--7-7~--7--7~---7-7---7-7~-7--7--7--7.-7--7--7~--7----|
A|--7~--7-7~--7--7~---7-7---5-5~-5--5--5--5.-5--5--5~--5----|
E|--5~--5-5~--5--5~---5-5-----------------------5-----------|

 'We have no need for ancient ways. The world is doing fine'
E|------------5--5~---5-5-----------------------------------|
B|------------5--5~---5-5---7-7~-8--7--7--7.-8-----7~--7----|
G|------6-6~--6--6~---6-6---7-7~-7--7--7--7.-7-----7~--7----|
D|--7~--7-7~--7--7~---7-7---7-7~-7--7--7--7.-7--7--7~--7----|
A|--7~--7-7~--7--7~---7-7---5-5~-5--5--5--5.-5--5--5~--5----|
E|--5~--5-5~--5--5~---5-5-----------------------5-----------|

 'Another toy which helped destroy the elder race of man'
E|------------5--5~---5-5-----------------------------------|
B|------------5--5~---5-5---7-7~-8--7--7--7.-8-----7~--7----|
G|------6-6~--6--6~---6-6---7-7~-7--7--7--7.-7-----7~--7----|
D|--7~--7-7~--7--7~---7-7---7-7~-7--7--7--7.-7--7--7~--7----|
A|--7~--7-7~--7--7~---7-7---5-5~-5--5--5--5.-5--5--5~--5----|
E|--5~--5-5~--5--5~---5-5-----------------------5-----------|

 'Forget about your silly whim, it doesn't fit the plan'
E|------------5--5~---5-5-----------------------------------|
B|------------5--5~---5-5---7-7~-8--7--7--7.-8-----7~--7----|
G|------6-6~--6--6~---6-6---7-7~-7--7--7--7.-7-----7~--7----|
D|--7~--7-7~--7--7~---7-7---7-7~-7--7--7--7.-7--7--7~--7----|
A|--7~--7-7~--7--7~---7-7---5-5~-5--5--5--5.-5--5--5~--5----|
E|--5~--5-5~--5--5~---5-5-----------------------5-----------|

 'I can't believe you're saying, these things just can't be true'
E|-----------------|-----------------------------------------|
B|-2--3-3--7--5-5\-|--2--3-3---9--3--2-----------------------|
G|-2--4-4--7--6-6\-|--2--4-4---9--4--2-----------------------|
D|-2--4-4--7--6-6\-|--2--4-4---9--4--2-----------------------|
A|-0--0-0-----0-0--|--0--0-0---------0-----------------------|
E|-----------------|-----------------------------------------|

 'Our world could use such beauty, just think what we might do'
E|-----------------|-----------------------------------------|
B|-2--3-3--7--5-5\-|--2--3-3---9--14--14\--------------------|
G|-2--4-4--7--6-6\-|--2--4-4---9--14--14\--------------------|
D|-2--4-4--7--6-6\-|--2--4-4---9--14--14\--------------------|
A|-0--0-0-----0-0--|--0--0-0---------------------------------|
E|-----------------|-----------------------------------------|

 'Listen to my music'
E|--------------------------------------------------------------|
B|-2--2---2-2-3p2-------7--7h8--7----9--9--9h10--9--------------|
G|-2--------------2-----7--7----7----9--9--9-----9--------------|
D|-2----2---------------7--7h9--7----9--9--9h11--9--------------|
A|-0------------------------------------------------------------|
E|--------------------------------------------------------------|

 'And hear what it can do'
E|--------------------------------------------------------------|
B|-2--2---2-2-3p2-------7--7h8--7----9--9--9h10--9--------------|
G|-2--------------2-----7--7----7----9--9--9-----9--------------|
D|-2----2---------------7--7h9--7----9--9--9h11--9--------------|
A|-0------------------------------------------------------------|
E|--------------------------------------------------------------|

 'There's something here as strong as life'
E|--------------------------------------------------------------|
B|-2--2---2-2-3p2-------7--7h8--7----9--9--9h10--9--------------|
G|-2--------------2-----7--7----7----9--9--9-----9--------------|
D|-2----2---------------7--7h9--7----9--9--9h11--9--------------|
A|-0------------------------------------------------------------|
E|--------------------------------------------------------------|

 'I know that it will reach you'
E|--------------------------------------------------------------|
B|-2--2---2-2-3p2-------7--7h8--7----9--9--9h10--9--------------|
G|-2--------------2-----7--7----7----9--9--9-----9--------------|
D|-2----2---------------7--7h9--7----9--9--9h11--9--------------|
A|-0------------------------------------------------------------|
E|--------------------------------------------------------------|

 'Don't annoy us further, oh,  we have our work to do'
E|------------5--5~---5-5-----------------------------------|
B|------------5--5~---5-5---7-7~-8--7--7--7.-8-----7~--7----|
G|------6-6~--6--6~---6-6---7-7~-7--7--7--7.-7-----7~--7----|
D|--7~--7-7~--7--7~---7-7---7-7~-7--7--7--7.-7--7--7~--7----|
A|--7~--7-7~--7--7~---7-7---5-5~-5--5--5--5.-5--5--5~--5----|
E|--5~--5-5~--5--5~---5-5-----------------------5-----------|

 'Just think about the average. What use have they for you?'
E|------------5--5~---5-5-----------------------------------|
B|------------5--5~---5-5---7-7~-8--7--7--7.-8-----7~--7----|
G|------6-6~--6--6~---6-6---7-7~-7--7--7--7.-7-----7~--7----|
D|--7~--7-7~--7--7~---7-7---7-7~-7--7--7--7.-7--7--7~--7----|
A|--7~--7-7~--7--7~---7-7---5-5~-5--5--5--5.-5--5--5~--5----|
E|--5~--5-5~--5--5~---5-5-----------------------5-----------|

 'Another toy which helped destroy the elder race of man'
E|------------5--5~---5-5-----------------------------------|
B|------------5--5~---5-5---7-7~-8--7--7--7.-8-----7~--7----|
G|------6-6~--6--6~---6-6---7-7~-7--7--7--7.-7-----7~--7----|
D|--7~--7-7~--7--7~---7-7---7-7~-7--7--7--7.-7--7--7~--7----|
A|--7~--7-7~--7--7~---7-7---5-5~-5--5--5--5.-5--5--5~--5----|
E|--5~--5-5~--5--5~---5-5-----------------------5-----------|

 'Forget about your silly whim, it doesn't fit the plan'
E|------------5--5~---5-5-----------------------------------|
B|------------5--5~---5-5---7-7~-8--7--7--7.-8-----7~--7----|
G|------6-6~--6--6~---6-6---7-7~-7--7--7--7.-7-----7~--7----|
D|--7~--7-7~--7--7~---7-7---7-7~-7--7--7--7.-7--7--7~--7----|
A|--7~--7-7~--7--7~---7-7---5-5~-5--5--5--5.-5--5--5~--5----|
E|--5~--5-5~--5--5~---5-5-----------------------5-----------|

Do this 8 times with solo in key of D
E|-------------|----2--2------3--3------5--5-----|
B|-------------|----3--3------3--3------5--5-----|
G|-------------|-4--4--4------4--4------6--6-----|
D|-------------|-4---------5---------7---------9-|
A|-------0-----|-2---------5---------7---------9-|
E|-0-2-3---3-0-|-----------3---------5---------7-|

[Part VII - Grand Finale]
 [Riff 1] - Freely (is there phaser here too?)
    E5                  D      A5  D5
E|------------------------------------------------------------|
B|----------------------8--7----------------------------------|
G|--9---9-9-9-9-9-9-----7--7-------7--------------------------|
D|--9---9-9-9-9-9-9-----7--7---7---7--------------------------| x12
A|--7---7-7-7-7-7-7-----5--5---7---5--------------------------|
E|--0---0-0-0-0-0-0------------5------------------------------|

 [Riff 2]
   E5                       D                     Esus2 Dsus2 Csus2
E|-0--0--0--0--0--0--0--0----------------------------7~--5~--3~-|
B|-0--0--0--0--0--0--0--0---7--7--7--7--7--7--7--7---7~--5~--3~-|
G|-9--9--9--9--9--9--9--9---7--7--7--7--7--7--7--7---9~--7~--5~-| x1
D|-9--9--9--9--9--9--9--9---7--7--7--7--7--7--7--7---9~--7~--5~-|
A|-7--7--7--7--7--7--7--7---5--5--5--5--5--5--5--5---7~--5~--3~-|
E|-0--0--0--0--0--0--0--0---------------------------------------|

 [Riff 3] - Freely
     B                   Esus2     Dsus2     Csus2
E|---------------------|-7--7-7-7--5--5-5-5--3-3-3-3-3-3---|
B|---------------------|-7--7-7-7--5--5-5-5--3-3-3-3-3-3---|
G|o-------------------o|-9--9-9-9--7--7-7-7--5-5-5-5-5-5---|
D|o--4---4---4----4---o|-9--9-9-9--7--7-7-7--5-5-5-5-5-5---| x8
A|---2-0-2-0-2--0-2----|-7--7-7-7--5--5-5-5--3-3-3-3-3-3---|
E|---------------------|-----------------------------------|

  [Guitar Solo] with partially depressed wah-wah
    B
E|------------------|------------------|------------------|
B|------------------|------------------|------------------|
G|------------------|------------------|------------------|
D|--4---4---4----4--|--4---4---4----4--|--4---4---4----4--|
A|--2-0-2-0-2--0-2--|--2-0-2-0-2--0-2--|--2-0-2-0-2--0-2--|
E|------------------|------------------|------------------|

    F#5 G5 A5 B5 C5 D5 E5 G5    F#5 G5 A5 B5           B5
E|-----------------------------------------|------------------|
B|-----------------------------------------|------------------|
G|--------------5--7--9--12\---------------|-----------4--5--7|
D|--4--5--7--9--5--7--9--12\----4--5--7--9-|--4--5--7--4--5--7|
A|--4--5--7--9--3--5--7--10\----4--5--7--9-|--4--5--7--2--3--5|
E|--2--3--5--7------------------2--3--5--7-|--2--3--5---------|

                        F#m
E|------------------|---2---2----2--2------|
B|------------------|---2---2----2--2------|
G|-----------4--5--7| o--2---2----2--2-----o|
D|--4--5--7--4--5--7| o--4---4----4--4-----o|
A|--4--5--7--2--3--5|---4---4----4--4------|
E|--2--3--5---------|---2---2----2--2------|
                      + o   o    o  +



************************************

| h  Hammer-on
| p  Pull-off
| ~  Vibrato
| \  Slide down
00:00 / 00:00
Otros videos de esta canción
Repetir
Otros videos de esta canción
236 exhibiciones
    • ½ Tono
    • Am
    • Bbm
    • Bm
    • Cm
    • C#m
    • Dm
    • Ebm
    • Em
    • Fm
    • F#m
    • Gm
    • G#m
  • Agregar a la lista

Afinación de cifrado

Afinador online

    00:00 / 00:00
    OK