Cifra Club

Natural Science

Rush

Tablatura: Principal (guitarra)
tono: G
Music by Lee and Lifeson
Lyrics by Peart

Comments/corrections to C. D. Bruce 

Transcribed by Paulo Henrique, Bodão Gomes Petrucci





    (4/4 time)
    Q        e  q     q+       e  e  q     e  e  q
e:--2--------2--2-----0-----|-(0)-0--0-----0--0--0-------------------|
B:--2--------2--2-----0-----|-(0)-0--0-----0--0--0-------------------|
G:o-4--------4--4-----2-----|-(2)-2--2-----2--2--2-------------------|
D:o-4--------4--4-----2-----|-(2)-2--2-----2--2--2-------------------|
A:--2--------2--2-----0-----|-(0)-0--0-----0--0--0-------------------|
E:--------------------------|----------------------------------------|

    Q        e  q     q+       e  e  q     e  e  q                  x5
e:--3--------3--3-----5-----|-(5)-5--5-----5--5--5-------------------|
B:--3--------3--3-----5-----|-(5)-5--5-----5--5--5-------------------|
G:--5--------5--5-----7-----|-(7)-7--7-----7--7--7------------------o|
D:--5--------5--5-----7-----|-(7)-7--7-----7--7--7------------------o|
A:--3--------3--3-----5-----|-(5)-5--5-----5--5--5-------------------|
E:--------------------------|----------------------------------------|

    Q        e  e  e  q+       e  e  q     e  e  e  e
e:--4--------4--4--4--4-----|-(4)-4--4-----4--4--4--4----------------|
B:--4--------4--4--4--4-----|-(4)-4--4-----4--4--4--4----------------|
G:o-6--------6--6--6--4-----|-(4)-4--4-----4--4--4--4----------------|
D:o-6--------6--6--6--6-----|-(6)-6--6-----6--6--6--6----------------|
A:--4--------4--4--4--------|----------------------------------------|
E:--------------------7-----|-(7)-7--7-----7--7--7--7----------------|

    Q        e  q     q+       q     q     e  e  e  e               x2
e:--7--------7--7-----9-----|-(9)----9-----9--9--9--9----------------|
B:--7--------7--7-----9-----|-(9)----9-----9--9--9--9----------------|
G:--9--------9--9-----11----|-(11)---11----11-11-11-11--------------o|
D:--9--------9--9-----11----|-(11)---11----11-11-11-11--------------o|
A:--7--------7--7-----9-----|-(9)----9-----9--9--9--9----------------|
E:--------------------------|----------------------------------------|

    q     q     q     q+       e  e  q     e  e  e  e
e:--2-----2-----2-----4-----|-(4)-4--4-----4--4--4--4----------------|
B:--2-----2-----2-----4-----|-(4)-4--4-----4--4--4--4----------------|
G:--4-----4-----4-----6-----|-(6)-6--6-----6--6--6--6----------------|
D:--4-----4-----4-----6-----|-(6)-6--6-----6--6--6--6----------------|
A:--2-----2-----2-----4-----|-(4)-4--4-----4--4--4--4----------------|
E:--------------------------|----------------------------------------|

    q     q     q     q+       e  e  q     e  e  q
e:--2-----2-----2-----0-----|-(0)-0--0-----0--0--0-------------------|
B:--2-----2-----2-----0-----|-(0)-0--0-----0--0--0-------------------|
G:--4-----4-----4-----2-----|-(2)-2--2-----2--2--2-------------------|
D:--4-----4-----4-----2-----|-(2)-2--2-----2--2--2-------------------|
A:--2-----2-----2-----0-----|-(0)-0--0-----0--0--0-------------------|
E:--------------------------|----------------------------------------|
                      ~

    q     q     q     q+       q     q     e  e  q
e:--2-----2-----2-----4-----|-(4)----4-----4--4--4-------------------|
B:--2-----2-----2-----4-----|-(4)----4-----4--4--4-------------------|
G:--4-----4-----4-----6-----|-(6)----6-----6--6--6-------------------|
D:--4-----4-----4-----6-----|-(6)----6-----6--6--6-------------------|
A:--2-----2-----2-----4-----|-(4)----4-----4--4--4-------------------|
E:--------------------------|----------------------------------------|
                      ~

    q     q     e  e  q+       e  e  q     e  e  q
e:--2-----2-----2--2--0-----|-(0)-0--0-----0--0--0-------------------|
B:--2-----2-----2--2--0-----|-(0)-0--0-----0--0--0-------------------|
G:--4-----4-----4--4--2-----|-(2)-2--2-----2--2--2-------------------|
D:--4-----4-----4--4--2-----|-(2)-2--2-----2--2--2-------------------|
A:--2-----2-----2--2--0-----|-(0)-0--0-----0--0--0-------------------|
E:--------------------------|----------------------------------------|

    q     q     q     q+       e  e  q     e  e  q
e:--3-----3-----3-----5-----|-(5)-5--5-----5--5--5-------------------|
B:--3-----3-----3-----5-----|-(5)-5--5-----5--5--5-------------------|
G:--5-----5-----5-----7-----|-(7)-7--7-----7--7--7-------------------|
D:--5-----5-----5-----7-----|-(7)-7--7-----7--7--7-------------------|
A:--3-----3-----3-----5-----|-(5)-5--5-----5--5--5-------------------|
E:--------------------------|----------------------------------------|

    q     q     e  e  q+       q     q     q     e  e
e:--2-----2-----2--2--0-----|-(0)----0-----0-----0--0----------------|
B:--2-----2-----2--2--0-----|-(0)----0-----0-----0--0----------------|
G:--4-----4-----4--4--2-----|-(2)----2-----2-----2--2----------------|
D:--4-----4-----4--4--2-----|-(2)----2-----2-----2--2----------------|
A:--2-----2-----2--2--0-----|-(0)----0-----0-----0--0----------------|
E:--------------------------|----------------------------------------|

    q     q     q     q+       e  e  q     e  e  e  e
e:--3-----3-----3-----5-----|-(5)-5--5-----5--5--5--5----------------|
B:--3-----3-----3-----5-----|-(5)-5--5-----5--5--5--5----------------|
G:--5-----5-----5-----7-----|-(7)-7--7-----7--7--7--7----------------|
D:--5-----5-----5-----7-----|-(7)-7--7-----7--7--7--7----------------|
A:--3-----3-----3-----5-----|-(5)-5--5-----5--5--5--5----------------|
E:--------------------------|----------------------------------------|

    q     q     q     q+       e  e  q     e  e  e  e
e:--4-----4-----4-----4-----|-(4)-4--4-----4--4--4--4----------------|
B:--4-----4-----4-----4-----|-(4)-4--4-----4--4--4--4----------------|
G:--6-----6-----6-----4-----|-(4)-4--4-----4--4--4--4----------------|
D:--6-----6-----6-----6-----|-(6)-6--6-----6--6--6--6----------------|
A:--4-----4-----4-----------|----------------------------------------|
E:--------------------7-----|-(7)-7--7-----7--7--7--7----------------|

    q     q     q     q+       w
e:--2-----2-----2-----0-----|-(0)------------------------------------|
B:--2-----2-----2-----0-----|-(0)------------------------------------|
G:--4-----4-----4-----2-----|-(2)------------------------------------|
D:--4-----4-----4-----2-----|-(2)------------------------------------|
A:--2-----2-----2-----0-----|-(0)------------------------------------|
E:--------------------------|----------------------------------------|
                      ~        fermata

q = 162

    e  e  e  e  e  e  e  e     e  e  e  e  e  e  e  e              x11
e:--------------------------|----------------------------------------|
B:--------0-----------------|--3-------------------------------------|
G:o----4-----------0-----2--|-----------0-----0-----0---------------o|
D:o-2-----------0-----0-----|--------0-----------0------------------o|
A:-----------3--------------|-----2--------3-------------------------|
E:--------------------------|----------------------------------------|

                               (7/4 time)
    e  e  e  e  e  e  e  e     w+h+q
e:--------------------------|----------------------------------------|
B:--------0-----------------|----------------------------------------|
G:-----4-----------0-----2--|----------------------------------------|
D:--2-----------0-----0-----|----------------------------------------|
A:-----------3--------------|----------------------------------------|
E:--------------------------|----------------------------------------|
                               "warp speed, Mr. Sulu" (guitar tacet)

Hyperspace

    (7/8 time)
    e  e  e  e  e  e  e     e  e  e  e  e  e  e                     x2
e:-----------------------|-------------------------------------------|
B:-----------------------|-------------------------------------------|
G:o----------------------|------------------------------------------o|
D:o-4-----4-----4--------|--4-----4-----4--5--7---------------------o|
A:-----7-----7-----7--5--|-----7-----7-------------------------------|
E:-----------------------|-------------------------------------------|

    e  e  e  e  e  e  e     e  e  e  e  e  e  e                     x2
e:-----------------------|-------------------------------------------|
B:-----------------------|-------------------------------------------|
G:o-4-----4-----4--------|--4-----4-----4--5--7---------------------o|
D:o----7-----7-----7--5--|-----7-----7------------------------------o|
A:-----------------------|-------------------------------------------|
E:-----------------------|-------------------------------------------|

    (2/4 time)
    e  e  e  e
e:-------------------------------------------------------------------|
B:-------------------------------------------------------------------|
G:--5--4-------------------------------------------------------------|
D:--------7--5-------------------------------------------------------|
A:-------------------------------------------------------------------|
E:-------------------------------------------------------------------|

    (7/8 time)
    e  e  e  e  e  e  e     e  e  e  e  e  e  e                     x2
e:-----------------------|-------------------------------------------|
B:-----------------------|-------------------------------------------|
G:o----------------------|------------------------------------------o|
D:o-4-----4-----4--------|--4-----4-----4--5--7---------------------o|
A:-----7-----7-----7--5--|-----7-----7-------------------------------|
E:-----------------------|-------------------------------------------|

    e  e  e  e  e  e  e     e  e  e  e  e  e  e                     x2
e:-----------------------|-------------------------------------------|
B:-----------------------|-------------------------------------------|
G:o-4-----4-----4--------|--4-----4-----4--5--7---------------------o|
D:o----7-----7-----7--5--|-----7-----7------------------------------o|
A:-----------------------|-------------------------------------------|
E:-----------------------|-------------------------------------------|

    e  e  e  e  e  e  e
e:-------------------------------------------------------------------|
B:-------------------------------------------------------------------|
G:--6--4-------------------------------------------------------------|
D:--------7--5--3----------------------------------------------------|
A:-----------------7--5----------------------------------------------|
E:-------------------------------------------------------------------|

    e  e  e  e  e  e  e     e  e  e  e  e  e  e                     x2
e:-----------------------|-------------------------------------------|
B:-----------------------|-------------------------------------------|
G:o----------------------|------------------------------------------o|
D:o----------------------|------------------------------------------o|
A:--4-----4-----4--------|--4-----4-----4--5--7----------------------|
E:-----7-----7-----7--5--|-----7-----7-------------------------------|

    e  e  e  e  e  e  e     e  e  e  e  e  e  e                     x2
e:-----------------------|-------------------------------------------|
B:-----------------------|-------------------------------------------|
G:o----------------------|------------------------------------------o|
D:o-4-----4-----4--------|--4-----4-----4--5--7---------------------o|
A:-----7-----7-----7--5--|-----7-----7-------------------------------|
E:-----------------------|-------------------------------------------|

    e  e  e  e  e  e  e
e:-------------------------------------------------------------------|
B:-------------------------------------------------------------------|
G:-------------------------------------------------------------------|
D:--5--4-------------------------------------------------------------|
A:--------7--5--4-----7----------------------------------------------|
E:-----------------5-------------------------------------------------|

    (4/4 time)
    Q        e+e   e  e  e     Q        e+e   e  e  e
e:--------------------------|----------------------------------------|
B:--------------------------|----------------------------------------|
G:o-4--------4-----4--4--4--|--4--------4-----4--4--4----------------|
D:o-4--------4-----4--4--4--|--4--------4-----4--4--4----------------|
A:--2--------2-----2--2--2--|--0--------0-----0--0--0----------------|
E:--------------------------|----------------------------------------|

    Q        e+e   e  e  e     Q        e+e   e  e  e               x2
e:--------------------------|----------------------------------------|
B:--------------------------|----------------------------------------|
G:--5--------5-----5--5--5--|--7--------7-----7--7--7---------------o|
D:--5--------5-----5--5--5--|--7--------7-----7--7--7---------------o|
A:--3--------3-----3--3--3--|--5--------5-----5--5--5----------------|
E:--3--------3-----3--3--3--|--5--------5-----5--5--5----------------|

    q     q     e  e  e  e     q     q     e  e  e  e
e:--------------4--4--4--4--|--------------4--4--4--4----------------|
B:--------------4--4--4--4--|--------------4--4--4--4----------------|
G:o-6-----6-----6--6--6--6--|--4-----4-----4--4--4--4----------------|
D:o-6-----6-----------------|--6-----6-------------------------------|
A:--4-----4-----------------|----------------------------------------|
E:--------------------------|--7-----7-------------------------------|

    q     q     e  e  e  e     q     q     e  e  e  e               x2
e:--------------7--7--7--7--|--------------9--9--9--9----------------|
B:--------------7--7--7--7--|--------------9--9--9--9----------------|
G:--9-----9-----9--9--9--9--|--11----11----11-11-11-11--------------o|
D:--9-----9-----------------|--11----11-----------------------------o|
A:--7-----7-----------------|--9-----9-------------------------------|
E:--------------------------|----------------------------------------|

    (7/8 time)
    e  e  e  e  e  e  e     e  e  e  e  e  e  e                     x2
e:-----------------------|-------------------------------------------|
B:-----------------------|-------------------------------------------|
G:o----------------------|------------------------------------------o|
D:o-4-----4-----4--------|--4-----4-----4--5--7---------------------o|
A:-----7-----7-----7--5--|-----7-----7-------------------------------|
E:-----------------------|-------------------------------------------|

    e  e  e  e  e  e  e     e  e  e  e  e  e  e                     x2
e:-----------------------|-------------------------------------------|
B:-----------------------|-------------------------------------------|
G:o-4-----4-----4--------|--4-----4-----4--5--7---------------------o|
D:o----7-----7-----7--5--|-----7-----7------------------------------o|
A:-----------------------|-------------------------------------------|
E:-----------------------|-------------------------------------------|

    (2/4 time)
    e  e  e  e
e:-------------------------------------------------------------------|
B:-------------------------------------------------------------------|
G:--5--4-------------------------------------------------------------|
D:--------7--5-------------------------------------------------------|
A:-------------------------------------------------------------------|
E:-------------------------------------------------------------------|

    (7/8 time)
    e  e  e  e  e  e  e     e  e  e  e  e  e  e                     x2
e:-----------------------|-------------------------------------------|
B:-----------------------|-------------------------------------------|
G:o----------------------|------------------------------------------o|
D:o-4-----4-----4--------|--4-----4-----4--5--7---------------------o|
A:-----7-----7-----7--5--|-----7-----7-------------------------------|
E:-----------------------|-------------------------------------------|

    e  e  e  e  e  e  e     e  e  e  e  e  e  e                     x2
e:-----------------------|-------------------------------------------|
B:-----------------------|-------------------------------------------|
G:o-4-----4-----4--------|--4-----4-----4--5--7---------------------o|
D:o----7-----7-----7--5--|-----7-----7------------------------------o|
A:-----------------------|-------------------------------------------|
E:-----------------------|-------------------------------------------|

    e  e  e  e  e  e  e
e:-------------------------------------------------------------------|
B:-------------------------------------------------------------------|
G:--6--4-------------------------------------------------------------|
D:--------7--5--3----------------------------------------------------|
A:-----------------7--5----------------------------------------------|
E:-------------------------------------------------------------------|

    e  e  e  e  e  e  e     e  e  e  e  e  e  e                     x2
e:-----------------------|-------------------------------------------|
B:-----------------------|-------------------------------------------|
G:o----------------------|------------------------------------------o|
D:o----------------------|------------------------------------------o|
A:--4-----4-----4--------|--4-----4-----4--5--7----------------------|
E:-----7-----7-----7--5--|-----7-----7-------------------------------|

    e  e  e  e  e  e  e     e  e  e  e  e  e  e                     x2
e:-----------------------|-------------------------------------------|
B:-----------------------|-------------------------------------------|
G:o----------------------|------------------------------------------o|
D:o-4-----4-----4--------|--4-----4-----4--5--7---------------------o|
A:-----7-----7-----7--5--|-----7-----7-------------------------------|
E:-----------------------|-------------------------------------------|

    e  e  e  e  e  e  e     q  H                    w
e:-----------------------|-----------------------|-------------------|
B:-----------------------|-----------------------|-------------------|
G:-----------------------|-----------------------|-------------------|
D:--5--4-----------------|-----------------------|-------------------|
A:--------7--5--4-----7--|-----------------------|-------------------|
E:-----------------5-----|--7--------------------|-------------------|

    (4/4 time)
    Q        e+e   e  e  e     Q        e+e   e  e  e
e:--------------------------|----------------------------------------|
B:--------------------------|----------------------------------------|
G:o-4--------4-----4--4--4--|--4--------4-----4--4--4----------------|
D:o-4--------4-----4--4--4--|--4--------4-----4--4--4----------------|
A:--2--------2-----2--2--2--|--0--------0-----0--0--0----------------|
E:--------------------------|----------------------------------------|

    Q        e+e   e  e  e     Q        e+e   e  e  e               x2
e:--------------------------|----------------------------------------|
B:--------------------------|----------------------------------------|
G:--5--------5-----5--5--5--|--7--------7-----7--7--7---------------o|
D:--5--------5-----5--5--5--|--7--------7-----7--7--7---------------o|
A:--3--------3-----3--3--3--|--5--------5-----5--5--5----------------|
E:--3--------3-----3--3--3--|--5--------5-----5--5--5----------------|

     Q    e+q q       Q   e+q q        Q    e+q q     Q   e+q  q
e:----------------|----------------|---------------|--------------------|
B:--<12>-<7>-<5>--|----------------|---------------|--------------------|
G:----------------|----------------|--<12>-<7>-<5>-|----------<7>-------|
D:----------------|----------------|---------------|----------<7>-------|
A:----------------|--<5>-<7>-<12>--|---------------|--------------------|
E:----------------|----------------|---------------|-<9>----------------|

    Q  e  e   e+ s  s  s  s      s  s  e  e  e   q   q+
e:--7-------------------------|--------------------------------------|
B:-----7--10--7-(7)-7-h10-p7--|--7-h10-p7-0--------------------------|
G:----------------------------|--------------9---b11-(b11)~----------|
D:----------------------------|--------------------------------------|
A:----------------------------|--------------------------------------|
E:----------------------------|--------------------------------------|
                                             gradual bend

    q       e   e   e        s   s  e   e
e:-------------------------------------------------------------------|
B:-------------------------------------------------------------------|
G:--(b11)~--7--[9]--9b11r9--(9)--7--9--[7]---------------------------|
D:-------------------------------------------------------------------|
A:-------------------------------------------------------------------|
E:-------------------------------------------------------------------|

                 ----------6----------
    e  Q+E   s   s   s   s   s   s   s
e:-------------------------------------------------------------------|
B:-------------------------------------------------------------------|
G:--9--7b9~--14-h17-p14-h15-p14-h17--17------------------------------|
D:-------------------------------------------------------------------|
A:-------------------------------------------------------------------|
E:-------------------------------------------------------------------|
|                                                                    |
|   (overdub)                                                        |
|   H            s    s    s    s                                    |
e:-------------------------------------------------------------------|
B:-------------------------------------------------------------------|
G:-------------------------------------------------------------------|
D:-------------------------------------------------------------------|
A:---------------4---h5---h6---h7------------------------------------|
E:-------------------------------------------------------------------|

    -------6--------          ---3---   -------6--------
    s  s  s  s  s  s   s  s   s  s  s   s  s  s  s  s  s
e:-------------------------------------------------------------------
B:--15-14-15-14-15-15--17-17--14-15-14--14-15-16-17-17-15------------
G:-------------------------------------------------------------------
D:-------------------------------------------------------------------
A:-------------------------------------------------------------------
E:-------------------------------------------------------------------

    -------6--------      -------6--------   -------6-------
    s  s  s  s  s  s      s  s  s  s  s  s+  e    s  s  s  s
e:---------------------|---------------------------------------------
B:--14-------------14--|--14-15-14-15-14-17--(17)-15-14--------------
G:-----16-14-14h16-----|--------------------------------16-14--------
D:---------------------|---------------------------------------------
A:---------------------|---------------------------------------------
E:---------------------|---------------------------------------------

    ----6-----   -------6--------
    e  s  s  e   s  s  s  s  s  s      Q     e   s   s   s   s   e
e:----------------------------------|--------------------------------
B:----------------------------------|--------------------------------
G:--16-13-14-14--13-14-14-16-13s14--|--16b18-r17-b18-r17-b18-r17-b18-
D:----------------------------------|--------------------------------
A:----------------------------------|--------------------------------
E:----------------------------------|--------------------------------

                     ---3---
    e         e  e   e  e  e   q   q         Q       Q        e
e:---------|------------------------------|---------------------------
B:---------|------------------------------|--12b14-t(15b17)-p(12b14)--
G:--16b18--|-----16--14h16p14--13--(13)\--|---------------------------
D:---------|------------------------------|---------------------------
A:---------|------------------------------|---------------------------
E:---------|------------------------------|---------------------------

     e      Q       Q        e       e      Q       Q        q+
e:-------|-------------------------------|---------------------------|
B:--r12--|--12b14-t(15b17)-p(12b14)-r12--|--12b14-t(19b21)-r(19)-----|
G:-------|-------------------------------|---------------------------|
D:-------|-------------------------------|---------------------------|
A:-------|-------------------------------|---------------------------|
E:-------|-------------------------------|---------------------------|

      e    e+H
e:-------------------------------------------------------------------|
B:--(t19)--s17-------------------------------------------------------|
G:-------------------------------------------------------------------|
D:-------------------------------------------------------------------|
A:-------------------------------------------------------------------|
E:-------------------------------------------------------------------|

    Q                 e+q   q+         e      e+q  q   q            x4
e:----------------------------------|--------------------------------|
B:----------------------------------|--------------------------------|
G:o-17b20r17---------(17)~--17b19~--|--(b19)--16---17--19-----------o|
D:o---------------------------------|-------------------------------o|
A:----------------------------------|--------------------------------|
E:----------------------------------|--------------------------------|
    gradual release

    e  e  e  e  e  e  e  e     e  e  e  e  e  e  e  e               x7
e:--------------------------|----------------------------------------|
B:--------0-----------------|--3-------------------------------------|
G:o----4-----------0-----2--|-----------0-----0-----0---------------o|
D:o-2-----------0-----0-----|--------0-----------0------------------o|
A:-----------3--------------|-----2--------3-------------------------|
E:--------------------------|----------------------------------------|

                               (2/4 time)     (4/4 time)
    e  e  e  e  e  e  e  e     e  e  e  e     w             w
e:--------------------------|--------------|--3----------|--2--------|
B:--------0-----------------|--3-----------|--3----------|--3--------|
G:-----4-----------0-----2--|-----------0--|--0----------|--2--------|
D:--2-----------0-----0-----|--------0-----|--2----------|--0--------|
A:-----------3--------------|-----2--------|--3----------|--0--------|
E:--------------------------|--------------|-------------|-----------|

Permanent Waves

q = 130

    q  q  q  q     q  q  q  q     q  q  q  q
e:--------------|--------------|--0--0--2--2-------------------------|
B:--4--4--------|--------4--4--|--0--0--2--2-------------------------|
G:--4--4--4--4--|--2--2--2--2--|--1--1--2--2-------------------------|
D:--4--4--4--4--|--2--2--2--2--|--2--2--2--2-------------------------|
A:--------2--2--|--0--0--------|-------------------------------------|
E:--------------|--------------|-------------------------------------|

    q  q  q  q     q  q  q  q     q  q  q  q+    e  e+e   e  h      x2
e:--------------|--------------|--0--0--2--2--|-(2)------------------|
B:--4--4--------|--------4--4--|--0--0--2--2--|-(2)------------------|
G:o-4--4--4--4--|--2--2--2--2--|--1--1--2--2--|-(2)-2---------------o|
D:o-4--4--4--4--|--2--2--2--2--|--2--2--2--2--|-(2)-2-----2--2------o|
A:--------2--2--|--0--0--------|--------------|-----0-----2--2-------|
E:--------------|--------------|--------------|-----------0--0-------|

    ----3-----    ----3----     ----3-----    ----3----
    q  e  e  q    q   q   q     q  e  e  q    q   q   q
e:--2--2--2--2----5---5---5--|--3--3--3--3----2---2---2--------------|
B:--3--3--3--3----5---5---5--|--3--3--3--3----3---3---3--------------|
G:o-2--2--2--2----6---6---2--|--0--0--0--0----4---4---4--------------|
D:o-0--0--0--0----7---7---7--|--0--0--0--0----4---4---4--------------|
A:---------------------------|----------------2---2---2--------------|
E:---------------------------|--3--3--3--3---------------------------|

    -------3--------    ----3----
    e  e  e  e  e  e    q   q   q     q     q     q     q
e:--0--0--0--0--0--0----0---0---0--|--2-----3-----0-----3------------|
B:--3--3--3--3--3--3----3---2---0--|--3-----3-----2-----3------------|
G:--2--2--2--2--2--2----2---2---2--|--2-----2-----2-----2------------|
D:--2--2--2--2--2--2----2---2---2--|--0-----2-----2-----2------------|
A:--0--0--0--0--0--0----0---0---0--|---------------------------------|
E:---------------------------------|---------------------------------|

                                        ---3---  ---3---
    h     h        h     h        h     e  e  e  e  e  e            x2
e:--2-----0-----|--2-----3-----|--0----------------------------------|
B:--3-----2-----|--3-----3-----|--0----------------------------------|
G:--2-----2-----|--4-----0-----|--1---------------------------------o|
D:--0-----2-----|--4-----0-----|--2---------------------------------o|
A:--0-----0-----|--2-----2-----|--2--------------0--2--4-------------|
E:--2-----0-----|--2-----3-----|--0-----0--2--4----------------------|

    q  q  q  q     q  q  q  q     q  q  q  q                        x2
e:--------------|--------------|--0--0--2--2-------------------------|
B:--4--4--------|--------4--4--|--0--0--2--2-------------------------|
G:o-4--4--4--4--|--2--2--2--2--|--1--1--2--2------------------------o|
D:o-4--4--4--4--|--2--2--2--2--|--2--2--2--2------------------------o|
A:--------2--2--|--0--0--------|-------------------------------------|
E:--------------|--------------|-------------------------------------|

    ----3-----    ----3----     ----3-----    ----3----
    q  e  e  q    q   q   q     q  e  e  q    q   q   q
e:--2--2--2--2----5---5---5--|--3--3--3--3----2---2---2--------------|
B:--3--3--3--3----5---5---5--|--3--3--3--3----3---3---3--------------|
G:o-2--2--2--2----6---6---2--|--0--0--0--0----4---4---4--------------|
D:o-0--0--0--0----7---7---7--|--0--0--0--0----4---4---4--------------|
A:---------------------------|----------------2---2---2--------------|
E:---------------------------|--3--3--3--3---------------------------|

    -------3--------    ----3----
    e  e  e  e  e  e    q   q   q     q     q     q     q
e:--0--0--0--0--0--0----0---0---0--|--2-----3-----0-----3------------|
B:--3--3--3--3--3--3----3---2---0--|--3-----3-----2-----3------------|
G:--2--2--2--2--2--2----2---2---2--|--2-----2-----2-----2------------|
D:--2--2--2--2--2--2----2---2---2--|--0-----2-----2-----2------------|
A:--0--0--0--0--0--0----0---0---0--|---------------------------------|
E:---------------------------------|---------------------------------|

                                        ---3---  ---3---
    h     h        h     h        h     e  e  e  e  e  e            x2
e:--2-----0-----|--2-----3-----|--0----------------------------------|
B:--3-----2-----|--3-----3-----|--0----------------------------------|
G:--2-----2-----|--4-----0-----|--1---------------------------------o|
D:--0-----2-----|--4-----0-----|--2---------------------------------o|
A:--0-----0-----|--2-----2-----|--2--------------0--2--4-------------|
E:--2-----0-----|--2-----3-----|--0-----0--2--4----------------------|

    w     w      q   q   q   q     s s s s s s s s s s  s s  s  q
e:-----|-----|------------------|------------------------------<12>--|
B:-----|-----|------------------|--0h4p0h4p0-7p0h7p0-10p0h10p0-------|
G:-----|-----|----------<7>-----|------------------------------------|
D:-----|-----|--------------<7>-|------------------------------------|
A:-----|-----|------<5>---------|------------------------------------|
E:--2--|--0--|--<4>-------------|------------------------------------|

                               ---3---
    E   s    q+    q+    e     e   s s
e:-----<12>-------------------/9-------------------------------------|
B:--0--------12~--(12)--(12)-------9h12------------------------------|
G:-----------11~--(11)--(11)-----------------------------------------|
D:-------------------------------------------------------------------|
A:-------------------------------------------------------------------|
E:-------------------------------------------------------------------|

    ------6------   ------6-------  ------6------
    s s  s s s  s   s  s s  s  s s  s  s s s  s s
e:--9h11-9-9-12-12--11-9-11-11-9-9--11-------------------------------
B:-------------------------------------9-9-12-9-12-------------------
G:-------------------------------------------------------------------
D:-------------------------------------------------------------------
A:-------------------------------------------------------------------
E:-------------------------------------------------------------------

                              -------6-------  ------6-------
    t  t  t t  t t  t  t      s  s  s  s s  s  s  s s  s  s s
e:-------------------------|-----------------------------------------
B:--12-10p9---------10-10--|--12-12-10-9----------9-10-12-9-10-------
G:----------11-9-11--------|-------------11-9--11--------------------
D:-------------------------|-----------------------------------------
A:-------------------------|-----------------------------------------
E:-------------------------|-----------------------------------------

     --3--      ----3-----     ---3---
     e   q      q    s   s     e e s s  s s s s  s e  s+q
e:--------------------------|----------------------------------------|
B:--(10)-12b14--r12-(12)-9--|--5h7p5p0--5p0-4s5-------0--------------|
G:--------------------------|--------------------4s6-----------------|
D:--------------------------|----------------------------------------|
A:--------------------------|----------------------------------------|
E:--------------------------|----------------------------------------|

    ---------3--------
    q          q     q   h
e:-----------------------12b14~--------------------------------------|
B:--12b14r12--(12)--p10----------------------------------------------|
G:-------------------------------------------------------------------|
D:-------------------------------------------------------------------|
A:-------------------------------------------------------------------|
E:-------------------------------------------------------------------|

              ---3---   ---3---   ----3----
   e      e   e  e  e   e  e  e   e  e  s s
e:-12b14--12--11-9---------------------------------------------------|
B:------------------12--10-9------9--10-9h10-------------------------|
G:----------------------------11-------------------------------------|
D:-------------------------------------------------------------------|
A:-------------------------------------------------------------------|
E:-------------------------------------------------------------------|

     s  s  s  s   s  s  s  s        s    s  e+e  s  s
e:-------------------------------------------------------------------|
B:--p9-----9---------------------------------------------------------|
G:------11----11--9-----9--11b13~--(b13)----11------9b11-------------|
D:-------------------11----------------------------------------------|
A:-------------------------------------------------------------------|
E:-------------------------------------------------------------------|

     q+  e    e     q+  e  s  s+       w
e:---------------------------------|---------------------------------|
B:---------------------------------|---------------------------------|
G:--r9--(9)--b11---r9--(9)---------|---------------------------------|
D:---------------------------------|---------------------------------|
A:---------------------------------|---------------------------------|
E:----------------------------5b6--|--(b6)~--------------------------|
                              gradual bend

    ----3-----    ----3----     ----3-----    ----3----
    q  e  e  q    q   q   q     q  e  e  q    q   q   q
e:--2--2--2--2----5---5---5--|--3--3--3--3----2---2---2--------------|
B:--3--3--3--3----5---5---5--|--3--3--3--3----3---3---3--------------|
G:o-2--2--2--2----6---6---2--|--0--0--0--0----4---4---4--------------|
D:o-0--0--0--0----7---7---7--|--0--0--0--0----4---4---4--------------|
A:---------------------------|----------------2---2---2--------------|
E:---------------------------|--3--3--3--3---------------------------|

    -------3--------    ----3----
    e  e  e  e  e  e    q   q   q     q     q     q     q
e:--0--0--0--0--0--0----0---0---0--|--2-----3-----0-----3------------|
B:--3--3--3--3--3--3----3---2---0--|--3-----3-----2-----3------------|
G:--2--2--2--2--2--2----2---2---2--|--2-----2-----2-----2------------|
D:--2--2--2--2--2--2----2---2---2--|--0-----2-----2-----2------------|
A:--0--0--0--0--0--0----0---0---0--|---------------------------------|
E:---------------------------------|---------------------------------|

                                        ---3---  ---3---
    h     h        h     h        h     e  e  e  e  e  e
e:--2-----0-----|--2-----3-----|--0----------------------------------|
B:--3-----2-----|--3-----3-----|--0----------------------------------|
G:--2-----2-----|--4-----0-----|--1----------------------------------|
D:--0-----2-----|--4-----0-----|--2----------------------------------|
A:--0-----0-----|--2-----2-----|--2--------------0--2--4-------------|
E:--2-----0-----|--2-----3-----|--0-----0--2--4----------------------|

    ----3-----    ----3----     ----3-----    ----3----
    q  e  e  q    q   q   q     q  e  e  q    q   q   q
e:--2--2--2--2----5---5---5--|--3--3--3--3----2---2---2--------------|
B:--3--3--3--3----5---5---5--|--3--3--3--3----3---3---3--------------|
G:o-2--2--2--2----6---6---2--|--0--0--0--0----4---4---4--------------|
D:o-0--0--0--0----7---7---7--|--0--0--0--0----4---4---4--------------|
A:---------------------------|----------------2---2---2--------------|
E:---------------------------|--3--3--3--3---------------------------|

    -------3--------    ----3----
    e  e  e  e  e  e    q   q   q     q     q     q     q
e:--0--0--0--0--0--0----0---0---0--|--2-----3-----0-----3------------|
B:--3--3--3--3--3--3----3---2---0--|--3-----3-----2-----3------------|
G:--2--2--2--2--2--2----2---2---2--|--2-----2-----2-----2------------|
D:--2--2--2--2--2--2----2---2---2--|--0-----2-----2-----2------------|
A:--0--0--0--0--0--0----0---0---0--|---------------------------------|
E:---------------------------------|---------------------------------|

                                                       ---3---
    h     h        h     h        h     h        h     q  q  q      x6
e:--2-----0-----|--2-----3-----|--0-----3-----|--2-----3--3--2-------|
B:--3-----2-----|--3-----3-----|--0-----3-----|--3-----3--3--3-------|
G:--2-----2-----|--4-----0-----|o-1-----0-----|--2-----0--0--2------o|
D:--0-----2-----|--4-----0-----|o-2-----2-----|--0-----0--2--0------o|
A:--0-----0-----|--2-----2-----|--2-----3-----|--------2--3----------|
E:--2-----0-----|--2-----3-----|--0-----------|----------------------|

    ---3---  ---3---  ---3---  ---3---
    q     e  e  e  e  q     e  e  e  e
e:--2-----2--2--2--2--0-----0--0--0--0-------------------------------|
B:--2-----2--2--2--2--0-----0--0--0--0-------------------------------|
G:o-4-----4--4--4--4--2-----2--2--2--2-------------------------------|
D:o-4-----4--4--4--4--2-----2--2--2--2-------------------------------|
A:--2-----2--2--2--2--0-----0--0--0--0-------------------------------|
E:-------------------------------------------------------------------|

    ---3---  ---3---  ---3---  ---3---
    q     e  e  e  e  q     e  e  e  e                              x2
e:--3-----3--3--3--3--5-----5--5--5--5-------------------------------|
B:--3-----3--3--3--3--5-----5--5--5--5-------------------------------|
G:--5-----5--5--5--5--7-----7--7--7--7------------------------------o|
D:--5-----5--5--5--5--7-----7--7--7--7------------------------------o|
A:--3-----3--3--3--3--5-----5--5--5--5-------------------------------|
E:-------------------------------------------------------------------|

    ---3---  ---3---  ---3---  ---3---
    q     e  e  e  e  q     e  e  e  e
e:--4-----4--4--4--4--4-----4--4--4--4-------------------------------|
B:--4-----4--4--4--4--4-----4--4--4--4-------------------------------|
G:--6-----6--6--6--6--4-----4--4--4--4-------------------------------|
D:--6-----6--6--6--6--6-----6--6--6--6-------------------------------|
A:--4-----4--4--4--4-------------------------------------------------|
E:--------------------7-----7--7--7--7-------------------------------|

    ---3---  ---3---  ---3---  ---3---
    q     e  e  e  e  q     e  e  e  e                              x2
e:--7-----7--7--7--7--9-----9--9--9--9-------------------------------|
B:--7-----7--7--7--7--9-----9--9--9--9-------------------------------|
G:--9-----9--9--9--9--11----11-11-11-11------------------------------|
D:--9-----9--9--9--9--11----11-11-11-11------------------------------|
A:--7-----7--7--7--7--9-----9--9--9--9-------------------------------|
E:-------------------------------------------------------------------|

    ---3---  ---3---  ---3---  ---3---
    q     e  e  e  e  q     e  e  e  e
e:--2-----2--2--2--2--0-----0--0--0--0-------------------------------|
B:--2-----2--2--2--2--0-----0--0--0--0-------------------------------|
G:o-4-----4--4--4--4--2-----2--2--2--2-------------------------------|
D:o-4-----4--4--4--4--2-----2--2--2--2-------------------------------|
A:--2-----2--2--2--2--0-----0--0--0--0-------------------------------|
E:-------------------------------------------------------------------|

    ---3---  ---3---  ---3---  ---3---
    q     e  e  e  e  q     e  e  e  e                              x2
e:--3-----3--3--3--3--5-----5--5--5--5-------------------------------|
B:--3-----3--3--3--3--5-----5--5--5--5-------------------------------|
G:--5-----5--5--5--5--7-----7--7--7--7------------------------------o|
D:--5-----5--5--5--5--7-----7--7--7--7------------------------------o|
A:--3-----3--3--3--3--5-----5--5--5--5-------------------------------|
E:-------------------------------------------------------------------|

    ---3---  ---3---  ---3---  ---3---
    q     e  e  e  e  q     e  e  e  e
e:--4-----4--4--4--4--4-----4--4--4--4-------------------------------|
B:--4-----4--4--4--4--4-----4--4--4--4-------------------------------|
G:--6-----6--6--6--6--4-----4--4--4--4-------------------------------|
D:--6-----6--6--6--6--6-----6--6--6--6-------------------------------|
A:--4-----4--4--4--4-------------------------------------------------|
E:--------------------7-----7--7--7--7-------------------------------|

    ---3---  ---3---  ---3---  ---3---
    q     e  e  e  e  q     e  e  e  e                              x2
e:--7-----7--7--7--7--9-----9--9--9--9-------------------------------|
B:--7-----7--7--7--7--9-----9--9--9--9-------------------------------|
G:--9-----9--9--9--9--11----11-11-11-11------------------------------|
D:--9-----9--9--9--9--11----11-11-11-11------------------------------|
A:--7-----7--7--7--7--9-----9--9--9--9-------------------------------|
E:-------------------------------------------------------------------|

    ---3---     ---3---        ---3---     ---3---
    q  q  q  q  e  e  e     q  e  e  e  q  e  e  e
e:--2--2--2--4--4--------|--4--4--------4--4-------------------------|
B:--2--2--2--4-----4-----|--4-----4-----4-----4----------------------|
G:--4--4--4--6--------6--|--6--------6--6--------6-------------------|
D:--4--4--4--6-----------|--6-----------6----------------------------|
A:--2--2--2--4-----------|--4-----------4----------------------------|
E:-----------------------|-------------------------------------------|

    ---3---     ---3---        ---3---     ---3---
    q  q  q  q  e  e  e     q  e  e  e  q  e  e  e
e:--2--2--2--0--0--------|--0--0--------0--0-------------------------|
B:--2--2--2--0-----0-----|--0-----0-----0-----0----------------------|
G:--4--4--4--2--------2--|--2--------2--2--------2-------------------|
D:--4--4--4--2-----------|--2-----------2----------------------------|
A:--2--2--2--0-----------|--0-----------0----------------------------|
E:-----------------------|-------------------------------------------|

    ---3---     ---3---        ---3---     ---3---
    q  q  q  q  e  e  e     q  e  e  e  q  e  e  e
e:--2--2--2--4--4--------|--4--4--------4--4-------------------------|
B:--2--2--2--4-----4-----|--4-----4-----4-----4----------------------|
G:--4--4--4--6--------6--|--6--------6--6--------6-------------------|
D:--4--4--4--6-----------|--6-----------6----------------------------|
A:--2--2--2--4-----------|--4-----------4----------------------------|
E:-----------------------|-------------------------------------------|

    ---3---                          ---3---
    q  q  q  h        h     h        q  q  q  h+      w
e:--2--2--2--0-----|--0-----0-----|--0--0--2--4----|-(4)-------------|
B:--2--2--2--0-----|--0-----0-----|--0--0--2--4----|-(4)-------------|
G:--4--4--4--2-----|--2-----2-----|--2--2--4--6----|-(6)-------------|
D:--4--4--4--2-----|--2-----2-----|--2--2--4--6----|-(6)-------------|
A:--2--2--2--0-----|--0-----0-----|--0--0--2--4----|-(4)-------------|
E:-----------------|--------------|----------------|-----------------|
                                                      fermata


Performance Notes:

1.  The acoustic portion of Tide Pools may be performed with some
rhythmic variations; some are notated in this tablature but liberties
may be taken.  In any case, the basic rhythmic motives are:

  Q e q q+ e e q e e q and
  q q q q+ e e q e e q

2. The sequence of arpeggios in Tide Pools is played four times with very
heavy chorusing, then switches to a drier sound for four iterations, and is
finally doubled by a more saturated guitar for its final three and a half
iterations.

3. The tapped section near the end of of the Hyperspace solo is apparently
the only recorded instance of Lifeson performing conventional pick-hand
tapping.  The taps should be executed on the string while it is bent (hence
the fret tapped on sounds a step higher).  In the final case, the bend
should be released while the tapped note is still held; then execute the
slide with the pick hand rather than the fret hand.

4. The repeating figure at the end of the Hyperspace guitar solo
crossfades with the following riff (the same one as at the end of "Tide
Pools").  This tablature assumes the figure in question is played all four
times so that the next vocal follows right on its heels.

5. The steady quarter-note sections in Permanent Waves should obviously be
played very percussively.

6. The guitars are overtracked much of the time in the Permanent Waves
section, so again, some liberties with the rhythm may be taken.  In this
tablature I've opted for a fairly consistent approach to rhythm; on the one
hand, it made cutting-and-pasting to do the tablature possible, and more
importantly, with the bass and drums going berzerk with fills much of the
time, something has to be keeping the beat, right?

Tablature explanation:

| - bar line, merely a separator when length notation absent

|----|
|----|
|o--o|  repeat
|o--o|
|----|
|----|

w  - whole note
h  - half note
q  - quarter note
e  - eighth note
s  - sixteenth note
t  - thirty-second note
x  - sixty-fourth note

Captial lengths indicate dotted notes, + indicates tied note

Length notations with no information below them indicate rests

Duplets, triplets, and their ilk are indicated by "---3---" and similar
constructs above the note lengths

h  - hammer on
p  - pull off
tr - trill
b  - bend (use tremolo bar for downbend)
r  - release bend
s  - slide
/  - slide up
\  - slide down
~  - vibrato
t  - tap (with strumming hand)
x  - fret-hand muting

+  - wah pedal back
o  - wah pedal forward

() optional note, or note held from previous articulation
<> natural harmonics
[] artificial (pinch) harmonics
NH natural harmonics
AH artificial (pinch) harmonics
TH tapped harmonics
PM palm mute
Composição de Geddy Lee / Kåre Christoffer Vestrheim / Neil Peart
55 reproducciones
    • ½ Tono
    • A
    • Bb
    • B
    • C
    • Db
    • D
    • Eb
    • E
    • F
    • F#
    • G
    • Ab
  • Adicionar à lista

    0 comentarios

    Ver todos os comentários

    ¿Conseguiste tocar?

    0 Tocaram 0 Ainda não

    Grave um vídeo tocando Natural Science e nos envie!

    00:00 / 00:00
    outros vídeos desta música
    repetir qualidade Automático
    Outros vídeos desta música
    00:00 / 00:00
    Automático
    OK