Cifra Club

Rivendell

Rush

Cifrado: Principal (guitarra y guitarra eléctrica)
tono: Dm
E|-----------|-----------|-----------------|--/-2---|--5--------|--5--------|
B|--3-----3--|--2-----2--|--1---0-1-0------|--\-3---|------3----|--3---3----|
G|*----0-----|----0------|----0-------2-0--|--/-2---|*---4---4--|----4---4--|
D|*------0---|------0----|-----------------|--\-0---|*-0--------|-----------|
A|--2-----2--|--1-----1--|--0--------------|--/-0---|-----------|-----------|
E|-----------|-----------|-----------------|--------|-----------|-----------|

E|--5--------|--5-----5--|--3--------|--3--------|--3--------|--3-----3--|
B|------3----|--3---3----|----0---0--|----0---0--|----0---0--|----0------|
G|----4---4--|----4------|------5----|--5---5----|------5----|--5---5----|
D|--0--------|--------0--|--0--------|-----------|--0--------|--------0--|
A|-----------|-----------|-----------|-----------|-----------|-----------|
E|-----------|-----------|-----------|-----------|-----------|-----------|

E|--3--------|--3--------|--0--------|--0-----0--|--0--------|-----------|
B|----0---0--|----0------|----1---1--|----1------|----1------|--------1--|
G|------0----|------0----|------0----|------0----|------0----|------0----|
D|--2--------|--------2--|--3--------|--------2--|--------2--|----2------|
A|-----------|-----------|-----------|-----------|--3--------|--3--------|
E|-----------|-----------|-----------|-----------|-----------|-----------|

E|--2------2-3-2----|---/-2---|----|-------------|---------------------|
B|----3----------3--|---\-3---|----|-------------|---------------------|
G|------2-----------|---/-2--*|---*|------------*|---------------------| (x2)
D|--0---------------|---\-0--*|---*|------------*|---------------------|
A|------------------|---/-0---|----|-------------|---------------------|
E|------------------|---------|----|-------------|---------------------|

E|--3---------|--3--------|--3--------|--\--0---|--1--------|--3-----3--|
B|*----3---3--|----3------|----3------|--/--2--*|----1---1--|----3-0----| (x2)
G|------0-----|------0----|------0----|--\--2---|------2----|-----------|
D|*-----------|--------0--|--------0--|--/--2--*|--3--------|--0--------|
A|--3---------|--2--------|-----------|--\--0---|-----------|-----------|
E|------------|-----------|--3--------|---------|-----------|-----------|

E|--2---2-3-2----|--\--2--|--0--------|--0--------|--3--------|--\--0--|
B|------------3--|--/--3--|----1---1--|----1------|----3------|--/--2--|
G|---------------|--\--2--|------2----|------0----|------0----|--\--2--|
D|--0-0----------|--/--0--|--3--------|--------2--|--------0--|--/--2--|
A|---------------|--\--0--|-----------|--3--------|-----------|--\--0--|
E|---------------|--------|-----------|-----------|--3--------|--------|

E|-----------|-----------|-----------------|--/-2--|--2-2-2-3-2--------|
B|--3-----3--|--2-----2--|--1---0-1-0------|--\-3--|------------3------|
G|*----0-----|----0------|----0-------2-0--|--/-2--|--------------2----|
D|*------0---|------0----|-----------------|--\-0--|----------------0--|
A|--2-----2--|--1-----1--|--0--------------|--/-0--|-------------------|
E|-----------|-----------|-----------------|-------|-------------------|

E|---------------|------------3--|-----|
B|---------------|------3---3----|-----|
G|------------0--|----0---0------|--0--|
D|------0---0----|--0------------|-----|
A|----2---2------|---------------|-----|
E|--3------------|---------------|--3--|

00:00 / 00:00
Otros videos de esta canción
Repetir
Otros videos de esta canción
Composición de Geddy Lee / Neil Peart
Colaboración y revisión:
  • Enzo Foschini
34 exhibiciones
    • ½ Tono
    • Am
    • Bbm
    • Bm
    • Cm
    • C#m
    • Dm
    • Ebm
    • Em
    • Fm
    • F#m
    • Gm
    • G#m
  • Agregar a la lista
    00:00 / 00:00
    OK