Cifra Club

Temples Of Syrinx

Rush

Cifrado: Principal (guitarra y guitarra eléctrica)
tono: G
[Riff 1]
   E  Am                C5 G5           D5
e:------------------------------------------|---------------------------|
B:----1-1-1-----1-1-1-----------------------|----1-1-1-----1-1-1--------|
G:-1--2-2-2--1--2-2-2---5---------5-----7\--|-1--2-2-2--1--2-2-2---5----|
D:-2--2-2-2--2--2-2-2---5--5-5-5--5--5--7\--|-2--2-2-2--2--2-2-2---5--5~|
A:-2--0-0-0--2--0-0-0---3--5-5-5--3--5--5\--|-2--0-0-0--2--0-0-0---3--5~|
E:-0---------0-------------3-3-3-----3------|-0---------0-------------3~|

[Riff 2]
                     Bm      G       A       B
e:----------------------2-2-----3-3-----5-5-----|
B:----------------------3-3-----3-3-----5-5-----|
G:-------------------4--4-4-----4-4-----6-6-----|
D:-------------------4-------5-------7----------|
A:----------0--------2-------5-------7----------|
E:-0--2--3-----3--0-(2)------3-------5-------7\-|

[Riff 3]
                     D5
e:----------------------|
B:-------------------3--|
G:-------------------2--|
D:-------------------0--|
A:-----------0----------|
E:--0--2--3-----3-------|


Progression:

[Riff 1] x2

[Riff 1] x2 w/ lyrics:

We've taken care of everything, the ....

[Riff 2] x4 w/ lyrics:

We are the priests of the ....

[Riff 3] x1

     B                 D   B                 G5
e:-----------------------------------------------|-----------------|
B:-----------------------------------------------|-----------------|
G:o--4-4-4-4--4--4-4---7---4-4-4-4--4--4-4---4--o|-4-4-4-4-4-4-4-4-|
D:o--4-4-4-4--4--4-4---7---4-4-4-4--4--4-4---5--o|-5-5-5-5-5-5-5-5-|
A:---2-2-2-2--2--2-2---5---2-2-2-2--2--2-2---5---|-5-5-5-5-5-5-5-5-|
E:-------------------------------------------3---|-3-3-3-3-3-3-3-3-|

[Riff 1] x2 w/ lyrics:

Look around this world we've made, ....

[Riff 2] x4 w/ lyrics:

We are the priests of the .....

[Riff 3] x1

Segue:

e:-------------------------------------------|
B:-------------------------------------------|
G:-4-4-4-4--4--4-4---7---4-4-4-4--4--4-4---4-|
D:-4-4-4-4--4--4-4---7---4-4-4-4--4--4-4---5-|
A:-2-2-2-2--2--2-2---5---2-2-2-2--2--2-2---5-|
E:-----------------------------------------3-|

e:-----------------------------------------3~~--------|
B:-----------------------------------------3~~--------|
G:-4-4-4-4--4--4-4---7---4-4-4-4--4--4-4---4~~--------|
D:-4-4-4-4--4--4-4---7---4-4-4-4--4--4-4---5~~--------|
A:-2-2-2-2--2--2-2---5---2-2-2-2--2--2-2---5~~--------|
E:-----------------------------------------3~~--------|

On a nylon-string acoustic:

    G          F#        Bm
e:--3----------2-------------------------------|
B:----3----3------2---2--3~--------------------|
G:------4-----------3----4~--------------------|
D:-----------------------4~--------------------|
A:-----------------------2~--------------------|
E:--3----------2-------------------------------|
00:00 / 00:00
Otros videos de esta canción
Repetir
Otros videos de esta canción
Composición de Alex Lifeson / Geddy Lee / Neil Peart
51 exhibiciones
    • ½ Tono
    • A
    • Bb
    • B
    • C
    • Db
    • D
    • Eb
    • E
    • F
    • F#
    • G
    • Ab
  • Agregar a la lista
    00:00 / 00:00
    OK