Cifra Club

The Twilight Zone

Rush

Cifrado: Principal (guitarra y guitarra eléctrica)
tono: C
Riff 1:

E-------8--7--5---3--5--7--8--7--5--3--5--7--8--7--5----------
B-------------------------------------------------------------
G-------------------------------------------------------------
D-------------------------------------------------------------
A-------------------------------------------------------------
E-------------------------------------------------------------

Riff 2:

E-----------------------0------0-------0-------------------------
B-----------------------1--------------------------------------
G-----------------------2----2------2----------------------------
D-----------------------2--2------2------------------------------
A----2--------3--2--0---0------------------------------------------
E-------3--0----------------------------------------------------

Riff 3:

-------------------1--------0-----------------0---------------------
----------------------1--------0----3---------1----------------------
-------------------------2-------0-----2------0----------------------
------------0---2--3--------2-------0----0----2-------------------------
--2-------------------------------------------3--------------------
-----3--0----------------------------------------------------------







Introdução: Am G F Em F G Am G F Em F G Am G F ( acompanhado do Riff 1)

(Em  D  C)
A pleasant faced man steps up to greet you
He smiles and says he's pleased to meet you
Beneath his hat the strangeness lies
Take it off, he's got three eyes
Am                  F
Truth is false and logic lost
Am                D    
Now the fourth dimension is crossed...

Riff 2
           (Am)
You have entered the Twilight Zone
Beyond this world strange things are known      Riff 3 

F  Em          D       C
Use the key, unlock the door
F  Em                     D
See what your fate might have in store... Riff 2
              (Am)
Come explore your dreams' creation
Enter this world of imagination...

         Riff 1

mesmo esquema......


You wake up lost in an empty town
Wondering why no one else is around
Look up to see a giant boy
You've just become his brand new toy
No escape, no place to hide
Here where Time and Space collide

You have entered the Twilight Zone
Beyond this world strange things are known
Use the key, unlock the door
See what your fate might have in store...
Come explore your dreams' creation
Enter this world of imagination...


O solo fiquei com preguiça......mas é pequeno e acho que dá pra deduzir em cima da escala.........Bom proveito!
00:00 / 00:00
Otros videos de esta canción
Repetir
Otros videos de esta canción
Composición de Alex Lifeson / Geddy Lee / Neil Peart
93 exhibiciones
    • ½ Tono
    • A
    • Bb
    • B
    • C
    • Db
    • D
    • Eb
    • E
    • F
    • F#
    • G
    • Ab
  • Agregar a la lista
    00:00 / 00:00
    OK