Cifra Club

About A Kid

Rustic Overtones

Cifrado: Principal (guitarra y guitarra eléctrica)
Selo Cifra Club: esta cifra foi revisada para atender aos critérios oficiais da nossa Equipe de Qualidade.
tono: C
Intro/"I swear I'd be good for you..."
E|---------||
B|---------|
G|---7---9-|
d|-9-7-7-9-
a|-9-5-7-7-
E|-7---5---|

Verse:
"They cannot get one more try..."
E|---------||
B|---------|
G|---7-9-9-|
d|-9-7-9-9-
a|-9-5-7-7-
E|-7-------|

"Life is a sucker punch packed behind a smile"
E|---------||
B|---------|
g|-7-7-9-9-
d|-7-7-9-9-
a|-5-5-7-7-
E|---------|
after this part go back to intro part.

Bridge:
E|---------|------|---------------
b|---------------|---------------
g|---------------|-------------7-
d|-2-2-X-2-2-X-3-|-2-2-X-2-2-X-7-
a|-2-2-X-2-2-X-3-|-2-2-X-2-2-X-5-
E|-0-0-X-0-0-X-1-|-0-0-X-0-0-X---|
....and back to intro part

ending (horn part):
E|---------|-----------------------------------
b|--------------------------------------------
g|--------------------------------------------
d|-----------------------------------------9\-
a|---5-7-----5-7-----5-7-8-7-5-7p5------------
E|-7-------|7-------7---------------7---7-7----

Or:
E|---------|-------------------------------------
b|------------------------------------------12\-
g|---7-9-----7-9-----7-9-10-9-7-9p7-------------
d|-9-------9-------9----------------9---9-9-----
a|----------------------------------------------
E|---------|-------------------------------------
Otros videos de esta canción
    1 exhibiciones
      • ½ Tono
      • A
      • Bb
      • B
      • C
      • Db
      • D
      • Eb
      • E
      • F
      • F#
      • G
      • Ab
    • Agregar a la lista

    Afinação da cifra

    Afinador online

      Ops (: Contenido disponible solo en portugués.
      OK