Cifra Club

Iron Boots

Rustic Overtones

Cifrado: Principal (guitarra y guitarra eléctrica)
Selo Cifra Club: esta cifra foi revisada para atender aos critérios oficiais da nossa Equipe de Qualidade.
tono: Bb
   Dm  Bb
E|--------|
B|--6-----|
G|--7--7--|
D|--7--8--| (repeat)
A|--5--8--|
E|-----6--|


       Iron boots     aluminum  wings         I just... running into 
                  * Play this chord (A) on the upstroke.
E|---------|---------|---------|-------------|---------|---------| :
B|---------|---------|---------|-------------|---------|---------| :
G|---------|---------|---------|-------------|---------|---------| :
|-5-5-5-5-|-5-5-5-7-|-8-8-8-8-|-10-10-10-10-|-3-3-3-3-|-8-8-8-8-|:
|-5-5-5-5-|-5-5-5-7-|-8-8-8-8-|-10-10-10-10-|-3-3-3-3-|-8-8-8-8-|:
EE|-3-3-3-3-|-3-3-3-5-|-6-6-6-6-|--8--8--8--8-|-1-1-1-1-|-6-6-6-6-| :

  things              And I'm all smashed up
E|---------|---------|---------|-------------|
B|---------|---------|---------|-------------|
G|---------|---------|---------|-------------|
|-5-5-5-5-|-5-5-5-7-|-8-8-8-8-|-10-10-10-10-|
|-5-5-5-5-|-5-5-5-7-|-8-8-8-8-|-10-10-10-10-|
E|-3-3-3-3-|-3-3-3-5-|-6-6-6-6-|--8--8--8--8-|



Then:

E|---------|---------|---------|---------|---------|---------|----------|-------------|
B|---------|---------|---------|---------|---------|---------|----------|-------------|
G|---------|---------|---------|---------|---------|---------|----------|-------------|
|-3-3-3-7-|-7-2-2-8-|-8-8-8-7-|-7-5-5-5-|-3-3-3-7-|-7-2-2-8-|-8-3-3-12-|-13-10-10-11-|
|-3-3-3-7-|-7-2-2-8-|-8-8-8-7-|-7-5-5-5-|-3-3-3-7-|-7-2-2-8-|-8-3-3-12-|-13-10-10-11-|
E|-1-1-1-5-|-5-0-0-6-|-6-6-6-5-|-5-3-3-3-|-1-1-1-5-|-5-0-0-6-|-6-1-1-10-|-10--8--8--9-|

Play that riff once, and then sing "Honey, today I hit the ground..." etc.


"Tripping me up again, iron boots and matching straight jacket suits . .."
E|----------------|
B|----------------|
G|----------------|
D|--7-7-5-5-4-3-3-|
A|--7-7-5-5-4-3-3-|
E|--5-5-3-3-2-1-1-|

Outro Jam:
E|-------------------------|
B|-------------------------|
G|-------------------------|
D|--2-3---4-5---6-7---9-10-|
A|--2-3---4-5---6-7---9-10-|
E|--0-1---2-3---4-5---7--8-|
Otros videos de esta canción
    4 exhibiciones
      • ½ Tono
      • A
      • Bb
      • B
      • C
      • Db
      • D
      • Eb
      • E
      • F
      • F#
      • G
      • Ab
    • Agregar a la lista

    Afinação da cifra

    Afinador online

      Ops (: Contenido disponible solo en portugués.
      OK