Cifra Club

Man Without A Mouth

Rustic Overtones

Cifrado: Principal (guitarra y guitarra eléctrica)
Selo Cifra Club: esta cifra foi revisada para atender aos critérios oficiais da nossa Equipe de Qualidade.
tono: Bbm
E|----------|
B|----------|
G|--3----3--|
D|--4----4--|
A|--4----4--|
E|--2----2--|

"Is it a warning of all the things to come..."
E|----------|
B|----------|
G|--4----4--|
D|--5----5--|
A|--5----5--|
E|--3----3--|

Repeat back and forth these two chords until the chorus

Chorus:
"When the man without a mouth let's his dog out..."
E|----------| ---------
B|----------| ---------
G|----------| ---------
D|--6-6-x---(4x)| -5-5-x---(4x)
A|--6-6-x---| -5-5-x---
E|--4-4-x---| -3-3-x---

E|----------| ---------
B|----------| ---------
G|----------| ---------
D|--6-6-x---(4x)| -5-5-x---(4x)
A|--6-6-x---| -5-5-x---
E|--4-4-x---| -3-3-x---
"When the man without a mouth wants to speak, he's got things to say..."
E|----------| ---------
B|----------| ---------
G|----------| ---------
D|--4-4-x---(4x)| -5-5-x---(4x)
A|--4-4-x---| -5-5-x---
E|--2-2-x---| -3-3-x---
Otros videos de esta canción
    0 exhibiciones
      • ½ Tono
      • Am
      • Bbm
      • Bm
      • Cm
      • C#m
      • Dm
      • Ebm
      • Em
      • Fm
      • F#m
      • Gm
      • G#m
    • Agregar a la lista

    Afinação da cifra

    Afinador online

      Ops (: Contenido disponible solo en portugués.
      OK