Cifra Club

Couldnt Love You More

Sade

Tab de bajo: Principal



Album:

Riff 1:
g:----------------------------|
d:----------------------------|
a:---------------------3------|
e:3-3-3----3-3---3---3--------|
b:-----------------1-----1-1-1|

Riff 2:
g:-----------------------------------|
d:-----------------------------------|
a:3-3-3--3-3-3-3---------------------|
e:----------------3-3-3---3-3-3-3----|
b:--------------------------------3-3|

End:
g:--------------------------|
d:--------------------------|
a:--------------------------|
e:3-3-3---3-3--1-1-1---1-1-1|
b:--------------------------|
reproducciones 41

0 comentarios

mostrar más comentarios

¿Conseguiste tocar?

0 tocaron 0 aún no

¡Graba un vídeo tocando Couldnt Love You More y envianoslo!

00:00 / 00:00
outros vídeos desta música
repetir qualidade Automático
Outros vídeos desta música
00:00 / 00:00
Automático
OK