Cifra Club

Is It A Crime

Sade

Tablatura: Principal (guitarra)
Tom: G#

Intro and Bridge

...it dives and it jumps         ..surely you want it back
   G#     G7        Cm     C#7     fill walks down (3x each)    
E|-4------3------|--3------4-----|--------------|
B|-4------3------|--4------6-----|--------------|    
G|-5------4------|--5------4-----|--------------|      
D|-6------3------|--5------6-----|-5-3-1--------|    
A|-6------5------|--3------4-----|-------5-3(3)-|
E|-4------3------|---------------|--------------|


verses

....this may come as some surprise
   Fm     Cm         
E|-1------3------|
B|-1------4------|  
G|-1------5------|     
D|-3------5------|   
A|-3------3------|
E|-1-------------|


chorus
..is it a crime     
   Cm     Fm    G7   
E|-3------1-----3--|
B|-4------1-----3--|
G|-5------1-----4--|
D|-5------3-----3--|
A|-3------3-----5--|
E|--------1-----3--|


presolo  (3:09)
..piano for guitar     
              
E|----------13-13h15-13h15--|----22-23----------|
B|-15-15h16-----------------|-20-------18h20-18-|
G|--------------------------|-------------------|
D|--------------------------|-------------------|
A|--------------------------|-------------------|
E|--------------------------|-------------------|

E|--------------13-13h15-13h15--|----22-23----------|
B|--------15-16-----------------|----------18h20-18-|
G|-12-12------------------------|-------------------|
D|------------------------------|-------------------|
A|------------------------------|-------------------|
E|------------------------------|-------------------|

sax solo for guitar (3:32)

E|----3b-3--------|-----3-3b-------|---6b-6b-3sdown-|--6-8p6--6h8-6h8-|
B|---------4sdown-|--4------4sdown-|-4--------------|-8------8--------|
G|-5-5------------|-5--------------|--5-------------|-----------------|
D|----------------|----------------|----------------|-----------------|
A|----------------|----------------|----------------|-----------------|
E|----------------|----------------|----------------|-----------------|

   (3:41)
                   (repeats)                                     C#7
E|-8sdown---------|---------------|--11b-10b---11b-10b--|-------------|
B|---------6p4----|--6p4----------|---------8---------8-|-(10)b-p(9)--|
G|------------5---|-----5----3----|---------------------|-------------|
D|----------------|-----------5---|---------------------|-------------|
A|----------------|---------------|---------------------|-------------|
E|----------------|---------------|---------------------|-------------|


out ending
..tell me, is it a....crime
   Fm     G7    C#7   Cm
E|-1------3-----4--|--3---------|
B|-1------3-----6--|--4-----(3)-|
G|-1------5-----4--|--5---------|
D|-3------3-----6--|--5---------|
A|-3------5-----4--|--3---------|
E|-1------3--------|------------|


enjoy
kenny


reproducciones 315
Acordes para:

    0 comentarios

    mostrar más comentarios

    ¿Conseguiste tocar?

    0 tocaron 0 aún no

    ¡Graba un vídeo tocando Is It A Crime y envianoslo!

    00:00 / 00:00
    outros vídeos desta música
    repetir qualidade Automático
    Outros vídeos desta música
    00:00 / 00:00
    Automático
    OK