Cifra Club

Nothing Can Come Between Us

Sade

Tab de bajo: Principal


Main:
g:------------------|
d:------------------|
a:----------1--1-1--|
e:1-X1-X1-5--------5|

Bridge:
g:--------------|
d:--------------|
a:--------------|
e:1--1x1--1--1x1|

2nd:
g:-------------------------|
d:------9-7-5-7------------|
a:7-7-9---------7-9-12--3-5|
e:-------------------------|






Enjoy
reproducciones 109

0 comentarios

mostrar más comentarios

¿Conseguiste tocar?

0 tocaron 0 aún no

¡Graba un vídeo tocando Nothing Can Come Between Us y envianoslo!

00:00 / 00:00
outros vídeos desta música
repetir qualidade Automático
Outros vídeos desta música
00:00 / 00:00
Automático
OK