Cifra Club

Why Cant We Live Together

Sade

Cifrado: Principal (guitarra y guitarra eléctrica)
tono: A
Tabber:sup0

Main Riff:
g:-------------------------|
d:-------------------------|
a:4--4-4-4-2-4--4-2-4-4---2|
e:----------------------4--|

Bridge:
g:-------------------------|
d:-------------------------|
a:2--2-2-2-0-2--2-0-2-2---2|
e:----------------------2--|

1st Pause:
g:----------------------------------------------------------|
d:------------------------------------------17h18p17--------|
a:2--4-4--------2-4-4-------2222-4-4-----------------18-15\\|
e:------------4---------------------------------------------|

2nd Pause:
g:------------------------------------------------------------------|
d:----------------------------------------------17h18p17h18p17h18p17|
a:--2-4-4--------X2-4-4--------2--2--4-4----------------------------|
e:4-----------------------------------------------------------------|

Part With Drums:
g:-------------------------|
d:-------------------------|
a:4--4-4-4-2-4--4-2-4------|
e:--------------------0-2-4|

this is the but a little differ-ant:
g:-------------------------------------|
d:----------------------------2h3-2----|
a:4--4-4-4-2-4--4-2-4-------2-------2-0|
e:--------------------0-2-4------------|

go back to the part marked "drums" 
and the last time coming out do this
g:-------------------------------|
d:------------------------2-2-3-5|
a:4--4-4-4-2-4--4-2-4-4-4--------|
e:-------------------------------|
00:00 / 00:00
Otros videos de esta canción
Repetir
Otros videos de esta canción
Composición de Timmy Thomas
118 exhibiciones
    • ½ Tono
    • A
    • Bb
    • B
    • C
    • Db
    • D
    • Eb
    • E
    • F
    • F#
    • G
    • Ab
  • Agregar a la lista
    00:00 / 00:00
    OK