Cifra Club

Margerine

Sadgasm

Tablatura: Principal
reproducciones 2.190
Tono: F
Intro:
E|----------------------------------------------------
B|----------------------------------------------------
G|----------------------------------------------------
D|--------------5-5-5-5-5-5---------------------------
A|-3-3-3-3-3-3--3-3-3-3-3-3--7-7-7-7-7-7--8-8-8-8-8-8-
E|-1-1-1-1-1-1---------------5-5-5-5-5-5--6-6-6-6-6-6-

Parte 2:
E|------------------------------------------------------
B|------------------------------------------------------
G|------------------------------------------------------
D|-7-7-7-7-7-7--10-10-10-10-10-10---------------3-3-3-3-
A|-5-5-5-5-5-5--8--8--8--8--8--8---7-7-7-7-7-7--1-1-1-1-
E|---------------------------------5-5-5-5-5-5----------

Parte 3:
E|---------------------
B|---------------------
G|---------------------
D|---------------------
A|-3-3-3-3-3-3--7-7--8-
E|-1-1-1-1-1-1--5-5--6-
Acordes para:
    Compositor: BidãColaboración y revision:
    • thiago souza
    • Vinicius

    0 comentarios

      mostrar más comentarios

      ¿Conseguiste tocar?

      10tocaron0aún no

      ¡Graba un vídeo tocando Margerine y envianoslo!

      00:00 / 00:00
      outros vídeos desta música
      repetirqualidadeautomática
      Outro vídeos desta música
        00:00 / 00:00
        automática
        OK