Cifra Club

Debilidad

Saiko (Chile)

Cifrado: Principal (guitarra y guitarra eléctrica)
Selo Cifra Club: esta cifra foi revisada para atender aos critérios oficiais da nossa Equipe de Qualidade.
tono: Am
INTRO : F  G   C  F  x2

E|-----------------------------------------------------|
B|-----------------------------------------------------|
G|-----------------------------------------------------|
D|---10-9-10-9-10-9-10-9-7--5--7----5-7-5-7--12-10-9-10|
A|-------------------------------5-7-------------------|
E|-----------------------------------------------------|


E|-----------------------------------------------------|
B|-----------------------------------------------------|
G|-----------------------------------------------------|
D|-----------------------------------------------------|
A|---10-9-10-9-10-9-10-9-9-7-5--7-7-7---5/7-----5------|
E|-----------------------------------5/7-----5/7-------|



    F    G  
    Soy
                     C     F 
    tan humano como los demás

    Y me cuesta decir la verdad
    G            Am 
    ver mi reflejo

    F   G  
    No
                    C      F 
    tuve fuerzas para derrotar

    E  vacio E  debilidad
    G               Am 
    no estaba lejos

  Coro:
             E 
    Y ahora voy
                      G  
    comenzando a caminar
                        D 
    aprendiendo a respirar
                    A 
    estaba ciega, voy
                     E 
    cargando con mi cruz
                       G  
    ya puedo ver la luz
                     D 
    te veo en el final

    de mi camino...


  Solo intro : Fa - Sol - Do - F  x 2

E|-----------------------------------------------------|
B|-----------------------------------------------------|
G|-----------------------------------------------------|
D|---10-9-10-9-10-9-10-9-7--5--7----5-7-5-7--12-10-9-10|
A|-------------------------------5-7-------------------|
E|-----------------------------------------------------|

  na na na na na na .......

E|-----------------------------------------------------|
B|-----------------------------------------------------|
G|-----------------------------------------------------|
D|-----------------------------------------------------|
A|---10-9-10-9-10-9-10-9-9-7-5--7-7-7---5/7-----5------|
E|-----------------------------------5/7-----5/7-------|





    F     SOl
    Y hoy
                         C         F 
    que comprendo porque ya no estas

    he sentido la necesidad
    G            Am 
    de estar despierta

    F     G  
    Y yo doy
                    C          F 
    lo que quieran por recuperar

    el amor que no supe cuidar
    SOl        Am 
    es mi castigo



  CORO´:

            E 
    Se que soy
                  G  
    agena a su verdad
                  D 
    peligro a lo normal
                  A 
    huelo sus miedos, voy
                  E 
    viviendo un dia más
                  G  
    luchando por ganar
               D 
    a mi debilidad

    ya estoy de regreso

  Solo intro : Fa - SOl - Do - F 

E|-----------------------------------------------------|
B|-----------------------------------------------------|
G|-----------------------------------------------------|
D|---10-9-10-9-10-9-10-9-7--5--7----5-7-5-7--12-10-9-10|
A|-------------------------------5-7-------------------|
E|-----------------------------------------------------|


E|-----------------------------------------------------|
B|-----------------------------------------------------|
G|-----------------------------------------------------|
D|-----------------------------------------------------|
A|---10-9-10-9-10-9-10-9-9-7-5--7-7-7---5/7-----5------|
E|-----------------------------------5/7-----5/7-------|   x 2 ( dos veces )


    F     G  
    Soy
                    C      F 
    tan humano como los demás

    Y me cuesta deicr la verdad
    G               Am 
    ver mi reflejooooooooo  ooooh
Otros videos de esta canción
    2.277 exhibiciones
      • ½ Tono
      • Am
      • Bbm
      • Bm
      • Cm
      • C#m
      • Dm
      • Ebm
      • Em
      • Fm
      • F#m
      • Gm
      • G#m
    • Agregar a la lista

    Afinação da cifra

    Afinador online

      Ops (: Contenido disponible solo en portugués.
      OK