Cifra Club

Renee

SALES

Tablatura: Principal (guitarra)
tono: G
[Primeira Parte]

E|----------------------------|

B|----------------------------|

G|-----6-------------6-6b-6---|

D|---4---4---------4----------|

A|-5-------0--2--5------------|

E|----------------------------|

[Segunda Parte] 

E|------------------------------------------|

B|------------------------------------------|

G|-----6b---------6b------------------------| X2

D|---7----7-----7----7----------------------|

A|-5----------5------------9----9----7----7-|

E|-----------------------7----7----5----5---|

"All the words I said were wrong"

[Final]

E|----------------------------|

B|----------------------------|

G|----------------------------|

D|-----6b---------------------|

A|---7----7-------------------|

E|-5--------------------------|
Composição de Sales
Colaboración y revision:
  • Mateus Soares
6 reproducciones
    • ½ Tono
    • A
    • Bb
    • B
    • C
    • Db
    • D
    • Eb
    • E
    • F
    • F#
    • G
    • Ab
  • Adicionar à lista

    0 comentarios

    Ver todos os comentários

    ¿Conseguiste tocar?

    0 Tocaram 1 Ainda não

    Grave um vídeo tocando Renee e nos envie!

    00:00 / 00:00
    outros vídeos desta música
    repetir qualidade Automático
    Outros vídeos desta música
    00:00 / 00:00
    Automático
    OK