Cifra Club

Mulan - Reflection

Lea Salonga

Cifrado: Principal (guitarra y guitarra eléctrica)
Selo Cifra Club: esta cifra foi revisada para atender aos critérios oficiais da nossa Equipe de Qualidade.
tono: Bm
E|---------------------------2-----------------------------------------------|
B|-----0--2-------0--2--2----------2---0----------0-0-0--2-------------------|
G|--3-----------3----------------3--------3--1--------------3--1-------------|
D|---------------------------------------------------------------------------|
A|---------------------------------------------------------------------------|
E|---------------------------------------------------------------------------|

E|------------------------------------------2---------2----4--------0--------|
B|--0-0-0--2-------------0--2------0--2----------2-------------2-3-----------|
G|------------3--1----3---------3--------------------------------------------|
D|---------------------------------------------------------------------------|
A|---------------------------------------------------------------------------|
E|---------------------------------------------------------------------------|

E|------0--0--5-----0-----------------------0--------------------------------|
B|-2-3-----------2------3--2--0-----3--3--3----2--0------0---0---------------|
G|---------------------------------------------------2-----------2-----------|
D|---------------------------------------------------------------------------|
A|---------------------------------------------------------------------------|
E|---------------------------------------------------------------------------|

E|---------------------------------------------------------------------------|
B|--0----0-----0-2-------1---2---------2-----------------2---2--3--0---------|
G|---------2--------2-----------4---2------0---------2-----------------2-----|
D|------------------------------------------------2--------------------------|
A|----------------------------------------------4----------------------------|
E|---------------------------------------------------------------------------|

E|---------------------------------------------------------------------------|
B|--0---0---0---0--0---------0---2--------------------------------------2----|
G|----------------------2-----------2----1---2---------2-------------2-------|
D|----------------------------------------------4---2-----0-------2----------|
A|-------------------------------------------------------------4-------------|
E|---------------------------------------------------------------------------|

E|---------------------------------------------------------------------------|
B|--2--3--0------0--2-----------2-------------------2------------------------|
G|----------------------2---2------------------2-----------------------------|
D|-----------------------------------------2---------------------------------|
A|-------------------------------------4-------------------------------------|
E|---------------------------------------------------------------------------|

E|---------------------------------------------------------------------------|
B|---2----3---0--------0-----2-----------------------------------------------|
G|----------------------------------2-----1------2---------------------------|
D|---------------------------------------------------------------------------|
A|---------------------------------------------------------------------------|
E|---------------------------------------------------------------------------|
Otros videos de esta canción
    203 exhibiciones
      • ½ Tono
      • Am
      • Bbm
      • Bm
      • Cm
      • C#m
      • Dm
      • Ebm
      • Em
      • Fm
      • F#m
      • Gm
      • G#m
    • Agregar a la lista

    Afinación de cifrado

    Afinador online

      OK