Cifra Club

Stay With Me

Sam Smith

Cifrado: Principal (guitarra y guitarra eléctrica)
Selo Cifra Club: esta cifra foi revisada para atender aos critérios oficiais da nossa Equipe de Qualidade.
tono: C
[Intro] Am7  F  C
        Am7  F  C

[Dedilhado - Intro]

   Am7   F      C
E|-----------x-----0----0-------------------|
B|-1-------1-x--1--1----1-------------------|
G|-0-------2-x--0--0----0-------------------| (2x)
D|-2-----3---x--2--2----2-------------------|
A|-0-x-0-----x--3--x--3-x-3-----------------|
E|---x-------x-----x----x-------------------|

[Primeira Parte]

[Dedilhado - Primeira Parte]

Parte 1 de 2

   Am7   F      C
E|-----------x-----0----0-------------------|
B|-1-------1-x--1--1----1-------------------|
G|-0-------2-x--0--0----0-------------------| (3x)
D|-2-----3---x--2--2----2-------------------|
A|-0-x-0-----x--3--x--3-x-3-----------------|
E|---x-------x-----x----x-------------------|

Parte 2 de 2

   Am7   G4     C
E|-----------x-----0----0-------------------|
B|-1-------3-x--1--1----1-------------------|
G|-0-------5-x--0--0----0-------------------|
D|-2-------5-x--2--2----2-------------------|
A|-0-x-0-----x--3--x--3-x-3-----------------|
E|---x---3---x-----x----x-------------------|

Am7
    Guess it's true
         F             C
I'm not good at a one night stand
Am7                   F
    But I still need love
                C
'Cause I'm just a man
Am7                     F
    These nights never seem
       C
To go to plan
Am7                      G4
    I don't want you to leave
               C
Will you hold my hand

[Refrão]

[Dedilhado - Refrão]

Parte 1 de 3

   Am7   F      C
E|-----------x-----0----0-------------------|
B|-1-------1-x--1--1----1-------------------|
G|-0-------2-x--0--0----0-------------------|
D|-2-----3---x--2--2----2-------------------|
A|-0-x-0-----x--3--x--3-x-3-----------------|
E|---x-------x-----x----x-------------------|

Parte 2 de 3

   Am7   F      C     G
E|-----------x-----0------------------------|
B|-1-------1-x--1--1----0-------------------|
G|-0-------2-x--0--0----0-------------------|
D|-2-----3---x--2--2----0-------------------|
A|-0-x-0-----x--3--x----x-------------------|
E|---x-------x-----x--3-x-3-----------------|

Parte 3 de 3

   Am7   F      C     E7/G#
E|-----------x-----0------------------------|
B|-1-------1-x--1--1----3-------------------|
G|-0-------2-x--0--0----4-------------------|
D|-2-----3---x--2--2----0-------------------|
A|-0-x-0-----x--3--x----x-------------------|
E|---x-------x-----x--4-x-4-----------------|

Parte 1 de 3

   Am7   F      C
E|-----------x-----0----0-------------------|
B|-1-------1-x--1--1----1-------------------|
G|-0-------2-x--0--0----0-------------------|
D|-2-----3---x--2--2----2-------------------|
A|-0-x-0-----x--3--x--3-x-3-----------------|
E|---x-------x-----x----x-------------------|

              Am7   F        C
Oh, won't you     stay with me
              Am7  F      C
'Cause you're      all I need
  G        Am7              F       C
This ain't     love, it's clear to see
      E7/G#   Am7   F        C
But, darling,     stay with me

[Segunda Parte]

Am7        F         C
    Why am I so emotional
Am7                      F
    No, it's not a good look
                C
Need some self control
Am7
    And deep down 
    F          C
I know this never works
Am7                       G4
    But you can lay with me 
               C
So it doesn't hurt

[Refrão]
 
              Am7   F        C
Oh, won't you     stay with me
              Am7  F      C
'Cause you're      all I need
  G        Am7              F       C
This ain't     love, it's clear to see
      E7/G#   Am7   F        C
But, darling,     stay with me

[Terceira Parte]

            Am7
Oh, oh, oh, oh
    F       C
Oh, oh, oh, oh
            Am7
Oh, oh, oh, oh
    F       C  G
Oh, oh, oh, oh

            Am7
Oh, oh, oh, oh
    F       C  E7/G#
Oh, oh, oh, oh
            Am7
Oh, oh, oh, oh
    F       C
Oh, oh, oh, oh

[Refrão Final]

              Am7   F        C
Oh, won't you     stay with me
              Am7  F      C
'Cause you're      all I need
  G        Am7              F       C
This ain't     love, it's clear to see
      E7/G#   Am7   F        C
But, darling,     stay with me

              Am7   F        C
Oh, won't you     stay with me
              Am7  F      C
'Cause you're      all I need
  G        Am7              F       C
This ain't     love, it's clear to see
      E7/G#   Am7   F        C
But, darling,     stay with me
Otros videos de esta canción
    630.365 exhibiciones
    • Simplificar cifrado
      • ½ Tono
      • A
      • Bb
      • B
      • C
      • Db
      • D
      • Eb
      • E
      • F
      • F#
      • G
      • Ab
    • Agregar a la lista

    Afinación de cifrado

    Afinador online

      Capítulos
      • Tocando a Música
      • Dicas Iniciais / Equipamentos
      • Acordes da Introdução
      • Tocando a Introdução
      • Ensinando a Introdução
      • Acordes da Primeira Parte
      • Tocando a Primeira Parte
      • Ensinando a Primeira Parte
      • Primeira Parte - Parte 1 de 2
      • Primeira Parte - Parte 2 de 2
      • Acordes do Refrão
      • Tocando o Refrão
      • Ensinando o Refrão
      • Refrão - Parte 1 de 3
      • Refrão - Parte 2 de 3
      • Refrão - Parte 3 de 3
      • Explicando as Repetições
      • Tocando a Terceira Parte
      • Dicas Finais e Encerramento
      • Ficha Técnica / Erros de Gravação
      OK