Cifra Club

Eart Mother

Samson

Cifrado: Principal (guitarra y guitarra eléctrica)
Selo Cifra Club: esta cifra foi revisada para atender aos critérios oficiais da nossa Equipe de Qualidade.
tono: G
INTRO Riff
 4X  2X
E|-------------------|----------------------------------|
B|-------------------|----------------------------------|
G|-------------------|---2-----0-2-0--------------------|
D|---4-------2-------|-----0-2-------2-0----------------|
A|-----0-2-3---3-2-0-|-0--------------------------------|
E|-2-----------------|----------------------------------|

    You grabbed me...
E|------------------------------------------------------|
B|------------------------------------------------------|
G|-2--2------2--2-----2--2-----2-2--0--2-4--------------|
D|-2--2------2--2-----2--2-----2-2--0--2-4--------------|
A|-0--0------0--0-----0--0-----0-0-----0-2--------------|
E|--3--3``----3--3``---3--3``-------3-------------------|

   Raw lines were...
E|------------------------------------------------------|
B|------------------------------------------------------|
G|------------------------------------------------------|
D|---4-------2------------------------------------------|
A|-----0-2-3---3-2-0------------------------------------|
E|-2----------------------------------------------------|

CHORUS: 2X
   Earth Mother help  me  bury me down there
E|------------------------------------------------------|
B|------------------------------------------------------|
G|-4------------2---------7------------2----------------|
D|-4------------2-5-------7------------2-----2-0--------|
A|-2------------0-5-------5------------0---------2``----|
E|----------------3-------------------------------------|

  After first verse there is this main riff veriety (4X)
E|------------------------------------------------------|
B|------------------------------------------------------|
G|------------------------------------------------------|
D|---2-------2-0----------------------------------------|
A|-----0-2-3-----3-2------------------------------------|
E|-4----------------------------------------------------|
Repeat above another verse, do chorus



Pre-SOLO: open chord
     8X     8X
E|-2----|---2-------------------------------------------|
B|-2----|---2-------------------------------------------|
G|-2----|---2-------------------------------------------|
D|-4----|---4-------------------------------------------|
A|-2----|-----------------------------------------------|
E|-2----|-----------------------------------------------|


SOLO: Use slight wah wah, echo and it goes something
      like this

E|------------------------------------------------------|
B|-4~2------4~5-5-5-4--5~4---5~4---5~4------5-4---------|
G|-----4-2----------------5-----5-----5-4--4---5-4------|
D|------------------------------------------------------|
A|------------------------------------------------------|
E|------------------------------------------------------|


E|-3~5-5-3-5-3-5-3--------------------------------------|
B|----------------5---4~5--4-1-0------------------------|
G|-------------------------------2-0--------------------|
D|-----------------------------------2`-----------------|
A|------------------------------------------------------|
E|------------------------------------------------------|


E|-7~8~5--7~8~5------7~8~5--7-8-10----------------------|
B|--------------10`-------------------------------------|
G|------------------------------------------------------|
D|------------------------------------------------------|
A|------------------------------------------------------|
E|------------------------------------------------------|


E|-10-12-13-15-13-12--------10-10---12`-----------------|
B|-------------------13-12--10-10---12`-----------------|
G|------------------------------------------------------|
D|------------------------------------------------------|
A|------------------------------------------------------|
E|------------------------------------------------------|

E|------------------------------------------------------|
B|-12~10-----------------------7-8-10-8-----------------|
G|------12-13-12-10------12--9----------9---------------|
D|-----------------12-13--------------------------------|
A|------------------------------------------------------|
E|------------------------------------------------------|

  very fast!

E|-10--10~7-------------------9`------------------------|
B|---------7-10~7-------------9`------------------------|
G|---------------7-9~7----7-9---------------------------|
D|--------------------7--9------------------------------|
A|-------------------------------slide pick-------------|
E|-------------------------------slide pick-------------|

Repeat chorus above then...

   OUTRO 4X
E|----------------------2-------------------------------|
B|----------------------2-------------------------------|
G|----------------------2-------------------------------|
D|---2-------2-0--------4-------------------------------|
A|-----0-2-3-----3-2------------------------------------|
E|-4-----------------2----------------------------------|

   Ending (fades)
E|------------------------------------------------------|
B|--2-0--5-4---5-4---2-0--------------------------------|
G|--2-0--5-4---5-4---2-0--------------------------------|
D|------------------------------------------------------|
A|------------------------------------------------------|
E|------------------------------------------------------|
Otros videos de esta canción
    11 exhibiciones
      • ½ Tono
      • A
      • Bb
      • B
      • C
      • Db
      • D
      • Eb
      • E
      • F
      • F#
      • G
      • Ab
    • Agregar a la lista

    Afinação da cifra

    Afinador online

      Ops (: Contenido disponible solo en portugués.
      OK