Cifra Club

Riding With The Angels

Samson

Cifrado: Principal (guitarra y guitarra eléctrica)
Selo Cifra Club: esta cifra foi revisada para atender aos critérios oficiais da nossa Equipe de Qualidade.
tono: G
  INTRO: riff and through a verse
E|------------------------------------------------------|
B|------------------------------------------------------|
G|-2------5---7--5--------------------------------------|
D|-2------5---7--5--------------------------------------|
A|-0-0-0-0-0-0-0----------------------------------------|
E|------------------------------------------------------|

   Every night Katie prayed
E|-5------8----10-8-------------------------------------|
B|-2------6----8--6-------------------------------------|
G|-3------5----7--5-------------------------------------|
D|-0-0-0-0-0-0------------------------------------------|
A|------------------------------------------------------|
E|------------------------------------------------------|

  Chorus 1: She woke up one day      I'm on my way
 2X
E|------------------------------------------------------|
B|------------------------------------------------------|
G|------------------------------------------------------|
D|--3--5-----------------------------5------------------|
A|--3--5-----------------------------5------------------|
E|--1--3-----------------------------3------------------|

  Chorus2 : She's having fun
 2X
E|-------------------------|----------------------------|
B|-------------------------|----------------------------|
G|-------------------------|----------------------------|
D|-3--5--7-----------------|--7-------------------------|
A|-3--5--7-----------------|--7-----0-3--5-3-0---5-3-0--|
E|-1--3--5-----------------|--5---3-----------3-------3-|

    SOLO: do something like this
E|----------------------------------------------------------------------|
B|----8-7---8-7--8-7--5---7-5---------------------------------7-5-------|
G|---9----9----9------5---7-5---------------------------------7-5-------|
D|---------------------7`-------7---------------------------------------|
A|------------------------------------7-6-5------------5-7--------------|
E|-----------------------------------------7-5`>-3-5-5------------------|

E|-----------------------------------------------------------|
B|-17-17--17-15-13-12--10-10--10-8-7-------------------------|
G|----------------------------------9-777-999-12.12.12--14`--|
D|-----------------------------------------------------------|
A|-----------------------------------------------------------|
E|-----------------------------------------------------------|
Otros videos de esta canción
    11 exhibiciones
      • ½ Tono
      • A
      • Bb
      • B
      • C
      • Db
      • D
      • Eb
      • E
      • F
      • F#
      • G
      • Ab
    • Agregar a la lista

    Afinação da cifra

    Afinador online

      Ops (: Contenido disponible solo en portugués.
      OK