Cifra Club

Depois do culto

Samuel Mariano

Tablatura: Principal (guitarra)
reproducciones 469
Tono: Em
Solo: C/E Cm/D# G/D A7/C# Cm7+/6 G9 Am7 G/B
      C/E Cm/D# G/D A7/C# Cm7+/6 C6/D G
        Cm G
E|-----------------------------------------------------------------------------------
B|-----------------------------------------------------------------------------------
G|-0--8/9--0--8--7--5-0--5/7--4--2--0--2--4--0----------0--4--2--4--2--4--5--4--5--7-
D|------------------------------------------------0---3------------------------------
A|----------------------------------------------3------------------------------------
E|-----------------------------------------------------------------------------------


E|-----------------------------------------------------------------------------------
B|-----------------------------------------------------------------------------------
G|-0--8/9--0--8--7--5-0--5/7--4--2--0--2--4--0----------0--4--2--0-------------------
D|------------------------------------------------0---3------------0-2-3-4-5-0-------
A|----------------------------------------------3------------------------------------
E|-----------------------------------------------------------------------------------

      G9           C4/E            Cm6/D#         G9
Deu errado, sua a pesca a noite toda não teve sucesso
   C4/E       B/D#         Em7/9
e agora seu amanhã parece incerto
      G9/A         A/C#             Cm6     D4
o que tens a fazer é lavar as redes e parar;

       G9        C4/E        Cm6/D#            G9
Deu errado, pois você sabia onde o peixe estava
   C4/E            B/D#      Em7/9
era ali que você sempre pescava
      G9/A           A/C#                  D4
mais tentou a noite inteira e nada conseguiu pegar;

       CM7                       B7           Em7
Mais está acontecendo um culto na beira do mar
    D9/F#           G9                         D4
e é Jesus que vai pregar e quer teu barco emprestado,
     CM7                B7         Em7     D9/F#               G
E depois do culto ele chama pra voltar exatamente pro mesmo lugar
     D4 C/D
onde tudo deu errado;

           G
Depois do culto você vai ver
          Em7
Depois do culto ele vai com você
          C                      Am7                   D
Depois do culto se prepare pro milagre que você tanto espera;
          G                          Em7
Depois do culto você vai voltar exatamente pro mesmo lugar,
          Am7                          C/D            G
Depois do culto Jesus vai surpreender crente nessa terra;


SOLO: G Em C Am D - G Em Am D G


G                                       B7                                   Em9
Não vai precisar mudar de casa, nem de rua, de cidade nem tampouco do país
Am                                      G/B                                             C                               D
você vai voltar pro mesmo barco, a mesma rede, o mesmo mar onde você foi infeliz;
G                                      B7                                  Em9
O que até agora não deu certo se prepare que o milagre acabou de começar
Am                         G/B                                   C                                       D
vai ouvindo ai Jesus pregando tem milagre esperando depois que o culto 
  
   D
Eu vi inimigos lutando lutando
              G
mais eu ia vencendo vencendo vencendo
                  D
e quanto mais apertavam oprimiam e lutavam 
                  G
mais eu estava crescendo, crescendo, crescendo, crescendo, crescendo

          G
Depois do culto você vai ver
          Em
Depois do culto ele vai com você
          C                      Am                    D
Depois do culto tem milagre providencia tem resposta creia;
          G                          Em
Depois do culto você vai voltar exatamente pro mesmo lugar,
          C                                       D                  G
Depois do culto Jesus vai surpreender crente nessa terra.
Acordes para:

    0 comentarios

    mostrar más comentarios

    ¿Conseguiste tocar?

    11 tocaron 7 aún no

    ¡Graba un vídeo tocando Depois do culto y envianoslo!

    00:00 / 00:00
    outros vídeos desta música
    repetir qualidade Automático
    Outros vídeos desta música
    00:00 / 00:00
    Automático
    OK