Cifra Club

Estranho Jeito De Amar

Sandy & Junior

Cifrado: Principal (guitarra y guitarra eléctrica)
tono: G
(intro) A9

A9          Em               D        D4  D
  Quanta bobagem tudo o que se falou
A9              Em                 D            D9
  Me olho no espelho e já nem sei mais quem sou
A9           Em            D         D9
  Quanto talento pra discutir em vão
A9           Em          D       G  A9 (seco)
  Será tão frágil nossa ligação?

            Em
Não tem que ser assim
      D                    D4  D  D9
Tanto desencontro, mágoa e dor
     D
Pra quê que a gente tem que se arriscar
A9         Em
  Então volta pra mim
         D               G                  A9  (seco)
Deixa o tempo curar esse estranho jeito de amar

          Em             D         D4  D
Falsas promessas, erros tão banais
A9            Em                   D        G  A9  (seco)
  Mas ninguém cede nem pensa em voltar atrás

            Em
Não tem que ser assim
      D                    D4  D  D9
Tanto desencontro, mágoa e dor
     D
Pra quê que a gente tem que se arriscar
A9         Em
  Então volta pra mim
         D               G                  A9
Deixa o tempo curar esse estranho jeito de amar

             C9       G       A9
Esquece esse jogo não há vencedor
           C9       G         A9
O mesmo roteiro de sempre cansou
        C9                    G              A9
Vou te amando e me frustrando e sobrevivendo por um fio
                 C9        G         A9
Mas tô aqui, sem desistir, volta pra mim

(solo violão)
|---------------------------------------------------------0-|
|-------------------------------------------------------0---|
|-5h7--5-----5^~---4/5-----------------------7--6-----------|
|---------7------------7--5^~---4-4-5-5-5/7--------7--------|
|-----------------------------------------------------------|
|-----------------------------------------------------------|

|-------10------10------10----10---10---10---10---10-13/10--9/7--5/3-|
|---11------11------11-----11---11---11---11---11--------------------|
|-9---9----9--9----9--9---9--9-9--9-9--9-9--9-9--9-------------------|
|--------------------------------------------------------------------|
|--------------------------------------------------------------------|
|--------------------------------------------------------------------|

(base) (A9  Em  D A9  Em  D)  G  A9

            Em
Não tem que ser assim
      D                    D4  D  D9
Tanto desencontro, mágoa e dor
     D
Pra quê que a gente tem que se arriscar
A9         Em
  Então volta pra mim
         D               G                  A9
Deixa o tempo curar esse estranho jeito de amar

            Em
Não tem que ser assim
      D                    D4  D  D9
Tanto desencontro, mágoa e dor
     D
Se é bem melhor a gente se entregar
A9         Em
  Então volta pra mim
         D               G                  A9
Deixa o tempo curar esse estranho jeito de amar

(solo 2)  (C9  G  A9  C9  G  A9)
         Ah  ah  ah..  Ah  ah  ah..

( A9 )
00:00 / 00:00
Otros videos de esta canción
Repetir
Otros videos de esta canción
Composición de Júnior Lima / Otávio de Moraes / Tatiana Parra
Colaboración y revisión:
  • Richard Steffen
  • Bruno Bessa
349 vistas
    • ½ Tono
    • A
    • Bb
    • B
    • C
    • Db
    • D
    • Eb
    • E
    • F
    • F#
    • G
    • Ab
  • Agregar a la lista

    0 comentarios

    Ver todos los comentarios

    ¿Lograste tocar?

    11 Tocaron 1 Aún no

    ¡Graba un video tocando Estranho Jeito De Amar y envíanoslo!

    00:00 / 00:00
    OK