Cifra Club

Nada É Por Acaso

Sandy & Junior

Cifrado: Principal (guitarra y guitarra eléctrica)
tono: B
Intro 2x: E  B  A
      
        E     B                  A        E     B                      A
E|------ 4 - 2 ----- 7 --- 4 --- 0 --- | --- 4 -2 ------7--- 4 --- 0 - 0---|
B|-------------------------------------------------------------------------|
G|-------------------------------------------------------------------------|
D|-------------------------------------------------------------------------|
A|-------------------------------------------------------------------------|
E|-------------------------------------------------------------------------|
         E   B                   A         E    B                 A
E|------ 4 - 2 ----- 7 --- 4 --- 0 --- | --- 4 -2 ------7--- 14 h12 -------|
B|-------------------------------------------------------------------------|
G|-------------------------------------------------------------------------|
D|-------------------------------------------------------------------------|
A|-------------------------------------------------------------------------|
E|-------------------------------------------------------------------------|
 
E
Já faz algum tempo
        G#m
Que eu fui te declarar
A
A minha paixão
        C         B
O desejo de te conquistar

E
Você me evitou
             G#m
 E nem ao menos quis tentar
A
E até disse não
        C         B
Com medo de se entregar

E/C#
Mas um sentimento
             F#
Quando é pra valer
A
Cedo ou tarde faz
             B
O que era sonho acontecer

E             C#m           A                     B
Agora eu sei, posso sentir que o seu amor já faz parte de mim (oh baby)
E             C#m           A                     B
Agora eu sei, posso sentir que o seu amor já faz parte de mim

E
Tudo que eu falei
               G#m
De alguma forma te envolveu
A
Te enfeitiçou
      C            B
De repente, você percebeu

E
Que nada é por acaso
         G#m
E nem precisa ter razão
A
Você aceitou
        C                      B
Dar uma chance pro meu coração

E/C#
Quando a gente ama
             F#
Vale a pena  arriscar
A
Mas de mil caminhos
             B
Pra poder se encontrar

E             C#m           A                     B
Agora eu sei, posso sentir que o seu amor já faz parte de mim (oh baby)
E             C#m           A                     B
Agora eu sei, posso sentir que o seu amor já faz parte de mim

A
Você vai descobrir o que é
B
amor de verdade
A
Sei que os meus olhos
     B
vão te convencer
A
Que eu te amo 
 B
além das palavras
G                   B  C#
Ah como eu quero você, ê...

F#   D#m   B   C#   F#   D#m   B   C#
Ê...       Uh...    Ih...

F#/D#                    G#
Mas um sentimento quando é pra valer
 B                          C#
Cedo ou tarde faz o que era sonho acontecer

F#            D#m           B                    C#
Agora eu sei, posso sentir que o seu amor já faz parte de mim (oh baby)
F#            D#m           B                    C#
Agora eu sei, posso sentir que o seu amor já faz parte de mim
F#            D#m           B                    C#
Agora eu sei, posso sentir que o seu amor já faz parte de mim
F#            D#m           B                    C#
Agora eu sei, posso sentir que o seu amor já faz parte de mim

   F#   C#       B   F#   C#          B
E|--6--4--9--6--2--|--6--4--9--6--2--2--|
B|-----------------|--------------------|
G|-----------------|--------------------|
D|-----------------|--------------------|
A|-----------------|--------------------|
E|-----------------|--------------------|

   F#   C#       B   F#   C#        B
E|--6--4--9--6--2--|--6—-4--9--16--14---|
B|-----------------|--------------------|
G|-----------------|--------------------|
D|-----------------|--------------------|
A|-----------------|--------------------|
E|-----------------|--------------------|
00:00 / 00:00
Otros videos de esta canción
Repetir
Otros videos de esta canción
Composición de Danimar / Lia Soares / Márcio Cruz / Pedro Barezzi
Colaboración y revisión:
  • Maria Gonçalves
281 vistas
    • ½ Tono
    • A
    • Bb
    • B
    • C
    • Db
    • D
    • Eb
    • E
    • F
    • F#
    • G
    • Ab
  • Agregar a la lista

    0 comentarios

    Ver todos los comentarios

    ¿Lograste tocar?

    2 Tocaron 1 Aún no

    ¡Graba un video tocando Nada É Por Acaso y envíanoslo!

    00:00 / 00:00
    OK